Modest MouseNeedle Point Текст

0 Голосов
e-----------------------------------------------------------------------------------

B-----------------------------------------------------------------------------------
G-----------------------------------------------------------------------------------
D---------------------9---9---9----9--------9---9------7--7------6--6-----7p6-------
A-----------7-7-------7---7---7----7--------0---0------0--0------0--0-----0-0-----7-
E ---9-9--------------0---0---0----0------------------------------------------------

e-----------------------------------------------------------------------------------
B-----------------------------------------------------------------------------------
G-----------------------------------------------------------------------------------
D-----------------------------------------------------------------------------------
A------------7-7----------------7-7-----------------------7-7-----------------------
E---9------------0-0----9---------------0--0----9-----------------0--0--------------


e--------------------------------------------------------------------------------
B--------------------------------------------------------------------------------
G--------------------------------------------------------------------------------
D---7h6----7h6----7h6----------9-----7---------7h6----7h6----7h6-------9---5-----
A---------------------------7--0-----------------------------------7-----0-------
E--------------------------------------------------------------------------------


Fig. 1 (7 times)
Fig. 2 (1 time)
Fig. 3 (2 times)
Fig. 1 (4 Times)
Fig. 3 (2 times)
Fig 2 (1 and a third times)
Fig.1 (3 times)
Solo

e-------------------11-12-11--------------------------------------------------------
B-------12-12-12-12-12-12-----------------------------------------------------------
G-------------------------------------------------------9-10-9----------------------
D------------------------------------------9-9-9-9-9-9--9----9----------------------
A-----------------------------------------------------------------------------------
E-----------------------------------------------------------------------------------



e-----------------------------------------------------------------------------------
B---17------------------------------------------------------------------------------
G-----------18-----16-----18---16--------------16------14---------------------------
D------------------------------------------14---------------------------------------
A-----------------------------------------------------------------------------------
E-----------------------------------------------------------------------------------
Другие песни: