Modest MouseIonizes And Atomizes Текст

0 Голосов
e-------------------------------10-10-10-10-10-------------|

B-10h11-11-11-11-11-10-10-10-10----------------13-13-13-13-|
G----------------------------------------------------------|
D----------------------------------------------------------|
A----------------------------------------------------------|
E----------------------------------------------------------|

e-------------------------------10-10-10-10-10-------------|
B-10h11-11-11-11-11-10-10-10-10----------------13-13-13-13-|
G----------------------------------------------------------|
D----------------------------------------------------------|
A----------------------------------------------------------|
E----------------------------------------------------------|


The other tab for this song was perfect except for the solo, so I made this. It sounds
The solo is played about ten times, I'm not exactly sure.
Другие песни: