Modest MouseDramamine Текст

0 Голосов
----------------------------------------------------------------------------

Dramamine – Modest Mouse
----------------------------------------------------------------------------
Tabbed by: Mike
Email: ski_to_the_xtreme@hotmail.com

Tuning:Standard

Riff 1
e|-------------------------|
B|-------------------------|
G|---0---------------------|
D|-2---2---4-----2-----4---|
A|-------5---5-3---3-----5-|
E|-------------------3-----|

Riff 2
e|-19~---------12~---12~---|
B|-------12~---------------|
G|-------------------------|
D|-------------------------|
A|-------------------------|
E|-------------------------|

Riff 3
e|-------------------------------------------------------------------------|
B|-------------------------------------------------------------------------|
G|----------12----------------------------------12-------------------------|
D|-14-12-14----14-12-------------------14-12-14----14-12-14-12----12-10----|
A|-------------------14-12----12-14----------------------------10-------10-|
E|-------------------------15-------15-------------------------------------|

Riff 4
e|--------------------------|
B|--------------------------|
G|--------------------------|
D|--------------------------|
A|-14-12----12-10-14-10-----|
E|-------12-----------------|

Riff 5
e|-------------------------------------------------------------------------|
B|-------------------------------------------------------------------------|
G|----------12----------------------------------12-------12~---------------|
D|-14-12-14----14-12-------------------14-12-14----14-12-------------------|
A|-------------------14-12----12-14----------------------------------------|
E|-------------------------15-------15-------------------------------------|

Riff 6
e|-0-----0-----0------------|
B|-0-----0-----0------------|
G|-0-----0-----0------------|
D|-2-----4-----2------------|
A|-------5-----3------------|
E|--------------------------|


Riff 7
e|-0-00000-00000-00000-0000-|
B|-0-00000-00000-00000-0000-|
G|-0-00000-00000-00000-0000-|
D|-2-22224-44442-22222-2222-| Emphasize capital strum
A|-------5-55553-33333-3333-| d = down
E|--------------------------| u = up
D duduD duduD duduD dudu

Riff 8
e|-------------------------------------------------------------------------|
B|-------------------------------------------------------------------------|
G|-16-14--12-11--12--11----------------------------------------------------|
D|----------------------12--12-10-9-10--9-10-12--10------------------------|
A|--------------------------------------------------10---------------------|
E|-------------------------------------------------------------------------|

Riff 9
e|----------------------------|
B|----------------------------|
G|-16-14----16-14----12----12-|
D|-------14-------14----14----|
A|----------------------------|
E|----------------------------|

Riff A
e|-------------------------------------|
B|-------------------------------------|
G|-------------------------------------|
D|-14-12----12-10----------------------|
A|-------10-------10-14-12----12-10----|
E|-------------------------12-------12-|
On last time play ||


Play Order
|11111111111111111111111111111111111111111|
| 22222222 |
| 3 3 3 3 3 |
| 4 4 |
| 5 5 |
| 66666666 66666666|

----------------------------------------------------------------------------

|111111111111111111111111111111111111|
| 222222222 |
| 3 3 |
| 4 |
| |
| |
|77777777 |
| 8 8 |
| 999999 |
| AAA |


| / slide up
| slide down
| h hammer-on
| p pull-off
| ~ vibrato
| + harmonic
| x Mute note
===============================================================================
That’s my best effort. There are a few little add ins they do, and some weird
outro, but I’m not going into that one
Другие песни: