Modest MouseCustom Concern Текст

0 Голосов
-------------------------------------------------------------------------------

Modest Mouse
-------------------------------------------------------------------------------
Tabbed by:Ben Flecther
Email:Aug18hn4@hotmail.com

Tuning:standard

intro
e|---------------------------------------------------------------------------|
B|---------------------------------------------------------------------------|
G|------0-------------------------0--------------------------0---------------|
D|---------0h2--------0h2---------------0h2----------0h2---------------------|
A|-3-3----------3-3--------3-3----------------3-3----------------------------|
E|---------------------------------------------------------------------------|

e|---------------------------------------------------------------------------|
B|---------------------------------------------------------------------------|
G|---------------------------------------------------------------------------|
D|---------------------------------------------------------------------------|
A|--0-0-3-3-0-0-3-3-0-0-3-3-0-0-3-3------------------------------------------|
E|---------------------------------------------------------------------------|

e|---------------------------------------------------------------------------|
B|---------------------------------------------------------------------------|
G|----------------------------------------------------------------------0----|
D|---------------------------------------------------------------------------|
A|-----2h3------2h3-----2h3----2h3----2h3-----2h3------2h3------2h3----------|
E|--3-------3--------3------3-------3------3-------3--------3----------------|
outro
e|---------------------------------------------------------------------------|
B|---------------------------------------------------------------------------|
G|------------5/7--4h5-5-4-0-------------------------------------------------|
D|-----2h3/5-------------------5-3-------------------5/7-4h5-5-4-0-----------|
A|--3-------------------------------5-3-------2h3/5----------------5-3-------|
E|---------------------------------------5-3---------------------------5-3-0-|

e|---------------------------------------------------------------------------|
B|---------------------------------------------------------------------------|
G|---------------------------------------------------------------------------|
D|---------------------------------------------------------------------------|
A|---------------------------------------------------------------------------|
E|-3-5-7-8-10-12-13-15---1-3-5-7-8-7-5-3-1-0---------------------------------|

if there're any problems fix it for me.
Другие песни: