Modest MouseBlame It On The Tetons Текст

0 Голосов
-------------------------------------------------------------------------------

BLAME IT ON THE TETONS - Modest Mouse
-------------------------------------------------------------------------------
Tabbed by: HellBent
Email: hellbent@programmer.net

Tuning: Standard EADGBe

----------------------------------------------------|
0-0-0-0-0-0-----------------------------------------|
4-4-4-4-5-7-0-0-0-0-0-0---------------------------2-|
5-5-5-5-5-5-4-4-4-4-5-7-2-2-2-2-2-0-0-2-2-2-2-2-5-3-|
------------5-5-5-5-5-5-3-3-3-3-3-3-3-3-3-3-3-3-3---|
----------------------------------------------------|

Repeat until song is over :)

I like to slide the last notes up to the start of the song again, but thats me...fun song to play
PS: My First Tab
Другие песни: