Modest MouseAlone Down There Текст

0 Голосов
Artist: Modest Mouse

Album: The Moon and Antarctica
Song: Alone Down There

This is a great song.
There are too many layers of guitar to pick through so I did my best.
Its pretty much in the order played of the song, just figure out
how many times to play each part. Remember to strum the chords along
with the rhythm of the song, theyre not all eigth notes.

Intro
|----------------------------------7-------|
|----------------------------------7-------|
|----------------------------------7-------|
|----------------------------------9-------|
|---9---9-10-0-----------9---9---9-9-------|
|-7---7--------3-5-3-5-7---7---7---7-5-3-5-|

Verse
|-------------------------|
|-------------------------|
|-------------------------|
|-------------------------|
|---9---9-10-0------------|
|-7---7--------3-5-3-5----|

Pre-Chorus
|-----------------------------------------------------------------|
|-----------------------------------------------------------------|
|-----------------------------------------------------------------|
|-----------------------------------------------------------------|
|-9-9-9-9-9-9-9-9-4-4-4-4-4-4-4-4-5-5-5-5-5-5-5-5-7-7-7-7-7-7-7-7-|
|-7-7-7-7-7-7-7-7-2-2-2-2-2-2-2-2-3-3-3-3-3-3-3-3-5-5-5-5-5-5-5-5-|

Chorus
|-------------------------------------|
|-------------------------------------|
|-------------------------------------|
|--------------7----------------------|
|----9-7-5--5--------5-----9-7-5-4----|
|-7---------------3-----5-------------|

Bridge
|--------------------------------------------------------------------|
|--------------------------------------------------------------------|
|--------------------------------------------------------------------|
|-4-4-4-4-4-4-4-4----------------------------------------------------|
|-2-2-2-2-2-2-2-2-4-4-4-4-4-4-4-4-5-5-5-5-5-5-5-5-7-7-7-7-7-7-7-7----|
|-----------------2-2-2-2-2-2-2-2-3-3-3-3-3-3-3-3-5-5-5-5-5-5-5-5----|

Solo
|----------------------------------------|
|----------------------------------------|
|-7-11-7-6-4-----6---7-11-7-6-4-----6----|
|------------5-7----------------5-7------|
|-5--9-5-4-2-----4---5--9-5-4-2-----4----|
|------------3-5----------------3-5------|

Outro
|--------------------------------------------------------------------|
|--------------------------------------------------------------------|
|--------------------------------------------------------------------|
|-4-4-4-4-4-4-4-4----------------------------------------------------|
|-2-2-2-2-2-2-2-2--4-4-4-4-4-4-4-4--5-5-5-5-5-5-5-5--7-7-7-7-7-7-7-7-|
|------------------2-2-2-2-2-2-2-2--3-3-3-3-3-3-3-3--5-5-5-5-5-5-5-5-|

*Excuse mistakes, I'm a bassist :-P

***************************************************************************************
* Generated using Power Tab Editor by Brad Larsen - http://powertab.guitarnetwork.org *
***************************************************************************************
Другие песни: