Modest MouseA Different City Текст

0 Голосов
Modest Mouse

A Different City
Tabbed By: Kelly Goosecock (iluvcky@hotmail.com)


e------------------------------|
B-------------7/9-7b-7-7-------|
G------------------------------|
D-6--6-6-8-8-9----------9-9-8-8|
A------------------------------|
E------------------------------|

e------------------------------|
B------------------------------|
G-------------6/8-6b-6-6-------|
D-6--6-6-8-8-9----------9-9-8-8|
A------------------------------|
E------------------------------|

e-------------------------------------|
B-------------------------------------|
G-13-9-11-9-13-9-11-9-8-9-8-13-9-11-9-|
D-11-9-9--9-11-9-9--9-9-9-9-11-9-9--9-|
A-------------------------------------|
E-------------------------------------|

e----------------------------------------------------|
B----------------------------------------------------|
G-13-13-13-13-9-9-9/1198-8-8/986-6-6-4-4-3-3-4-4-|
D-13-13-13-13-9-9-9/1198-8-8/986-6-6-4-4-3-3-4-4-|
A-11-11-11-11-7-7-7/9 76-6-6/764-4-4-2-2-1-1-2-2-|
E----------------------------------------------------|

solo:
e-----------------------------------------------------|
B-----------------------------------------------------|
G-8-8-8-8-11h8-9h8-11h8-9h8-11h8-9h8-11h8-9h8-8-8-8-8-|
D-----------------------------------------------------|
A-----------------------------------------------------|
E-----------------------------------------------------|

e-----------------------------------------------------|
B-----------------------------------------------------|
G-9-9-9-11-11-11--------------------------------------|
D-----------------------------------------------------|
A-----------------------------------------------------|
E-----------------------------------------------------|
Другие песни: