MobyEverloving Текст

0 Голосов
Em			Em		 Em

e|----------------------------------------------------------|
B|----------------------------------------------------------|
G|----0-----------------0-----------------0-----------------|
D|-------2-----2-----2-----2-----2-----2-----2-----2------2-|
A|----------2-----2-----------2-----2-----------2------2----|
E|-0--------------------------------------------------------|

C C G
e|----------------------------------------------------------|
B|----1-----------------1-----------------1--------0--------|
G|-------0-----0-----0-----0-----0-----0--------------0-----|
D|----------0-----0-----------0-----0--------------------0--|
A|-3-----------------------------------------0--------------|
E|----------------------------------------------3-----------|

G G
e|---------------------------------------------|
B|-----------0/3-----------------0-------------|
G|-0-----0--------0-----0-----0-----0-----0----|
D|----0--------------0-----0-----------0-----0-|
A|---------------------------------------------|
E|---------------------------------------------|

Second Verse
-------------
Am Am Am
e|----------------------------------------------------------|
B|----1------------------1-----------------1----------------|
G|-------2-----2-----2------2-----2-----2-----2-----2-----2-|
D|----------2-----2------------2-----2-----------2-----2----|
A|-0--------------------------------------------------------|
E|----------------------------------------------------------|


Em Em Em
e|----------------------------------------------------------|
B|----------------------------------------------------------|
G|----0-----------------0-----------------0-----------------|
D|-------2-----2-----2-----2-----2-----2-----2-----2------2-|
A|----------2-----2-----------2-----2-----------2------2----|
E|-0--------------------------------------------------------|

D D D
e|-------------2------------------2----------------|
B|----3-----3-----3-----3------3-----3-----3-----3-|
G|-------2-----------2-----2------------2-----2----|
D|-0-----------------------------------------------|
A|-------------------------------------------------|
E|-------------------------------------------------|

Third Verse
------------
Am Am Am
e|----------------------------------------------------------|
B|----1------------------1-----------------1----------------|
G|-------2-----2-----2------2-----2-----2-----2-----2-----2-|
D|----------2-----2------------2-----2-----------2-----2----|
A|-0--------------------------------------------------------|
E|----------------------------------------------------------|


Em Em Em
e|----------------------------------------------------------|
B|----------------------------------------------------------|
G|----0-----------------0-----------------0-----------------|
D|-------2-----2-----2-----2-----2-----2-----2-----2------2-|
A|----------2-----2-----------2-----2-----------2------2----|
E|-0--------------------------------------------------------|

F F F
e|----------------------------------------------------------|
B|----------------------------------------------------------|
G|----2-----------------2-----------------2-----------------|
D|-------3-----3-----3-----3-----3-----3-----3-----3-----3--|
A|----------3-----3-----------3-----3-----------3-----3-----|
E|-1--------------------------------------------------------|
Другие песни: