MisfitsKkk Took My Baby Away Текст

0 Голосов
---------------------------------------------------------------------------- 

Ramones Cover - Misfits - KKK Took My Baby Away
----------------------------------------------------------------------------

tabbed by: funeralforafrie

Easy but great song, work out the unwritten structure, but should be easy to follow

Intro: Play this 5 times
e|-------------------------------------------------------------------------|
B|-------------------------------------------------------------------------|
G|-------------------------------------------------------------------------|
D|--7--7--7--7--7----------------------------------------------------------|
A|--7--7--7--7--7--x-------------------------------------------------------|
E|--5--5--5--5--5--x-------------------------------------------------------|

Verse 1
e|-------------------------------------------------------------------------|
B|-------------------------------------------------------------------------|
G|--------------------------------------------------7--7--7--7--7--7--7--7-|
D|--7--7--7--7--7--7--7--7--4--4--4--4--4--4--4--4--7--7--7--7--7--7--7--7-|
A|--7--7--7--7--7--7--7--7--4--4--4--4--4--4--4--4--5--5--5--5--5--5--5--5-|
E|--5--5--5--5--5--5--5--5--2--2--2--2--2--2--2--2--5--5--5--5--5--5--5--5-|
E
e|-------------------------|
B|-------------------------|
G|--9--9--9--9--9--9--9--9-|
D|--9--9--9--9--9--9--9--9-|
A|--7--7--7--7--7--7--7--7-|
E|--7--7--7--7--7--7--7--7-|


e|-------------------------------------------------------------------------|
B|-------------------------------------------------------------------------|
G|-----------------------------7---7---7------------9--9--9----------------|
D|--7--x--7--x--7--x--7--x-----7---7---7------------9--9--9----------------|
A|--7--x--7--x--7--x--7--x-----5---5---5--x---------7--7--7----------------|
E|--5--x--5--x--5--x--5--x-----5---5---5--x---------7--7--7----------------|

Play the intro, then.

Verse 2:
e|-------------------------------------------------------------------------|
B|-------------------------------------------------------------------------|
G|--------------------------7--7--7--7--9--9--9--9--7--7--7--7--9--9--9--9-|
D|--7--7--7--7--7--7--7--7--7--7--7--7--9--9--9--9--7--7--7--7--9--9--9--9-|
A|--7--7--7--7--7--7--7--7--5--5--5--5--7--7--7--7--5--5--5--5--7--7--7--7-|
E|--5--5--5--5--5--5--5--5--5--5--5--5--7--7--7--7--5--5--5--5--7--7--7--7-|


e|-------------------------------------------------------------------------|
B|-------------------------------------------------------------------------|
G|-----------6--9--9--9--9--7--7--7--7--9--9--9--9--5--5--5--5--9--9-------|
D|--7--7--7--7--9--9--9--9--7--7--7--7--9--9--9--9--5--5--5--5--9--9-------|
A|--7--7--7--7--7--7--7--7--5--5--5--5--7--7--7--7--3--3--3--3--7--7-------|
E|--5--5--5--5--7--7--7--7--5--5--5--5--7--7--7--7--------------0--0-------|
Другие песни: