MisfitsCrimson Ghost Текст

0 Голосов
-------------------------------------------------------------------------------

CRIMSON GHOST - Misfits
-------------------------------------------------------------------------------

tuned down a half step (low to high)
Eb Ab Db Gb Bb Eb

eb:---
Bb:---
Gb:---
Db:---
Ab:/7~
Eb:---
theres two ways you could do what doyles doing
1. get a tremolo pedal and stand close to amp
and get feedback and bend the note like he does
2. use your tremolo bar like its the pedal but without
the pedal (w/feedback)

bass riff(goes with guitar riff 2)
Gb:--------------------------------
Db:--------101010101010------------
Ab:/777777-------------777777-55555
Eb:--------------------------------

riff 2
eb:---------
Bb:---------
Gb:---------
Db:--7-5-4-5
Ab:--7-5-4-5
Eb:-5-3-2-3
i'm not putting the # of strums

eb:----------------------------
Bb:----------------------------
Gb:-------555555--------777777-
Db:-------555555--------777777-
Ab:-------333333--------555555-
Eb:000000--------000000--------
PM ------ ------(all down strokes)
riff2 again

eb:---------------
Bb:---------------
Gb:---------------
Db:2-5-2-5-2-5-2-5
Ab:2-5-2-5-2-5-2-5
Eb:0-3-0-3-0-3-0-3

part before first verse (its also the chorus riff)
eb:-------
Bb:-------
Gb:-------
Db:------5
Ab:------5
Eb:00000-3
PM -----(all down strokes)

verse
eb:-------:-------------
Bb:-------:-------------
Gb:-------:-------------
Db:9-7-10-:9------------
Ab:9-7-10-:9-777-555-44-
Eb:7-5--8-:7-555-333-22-
PM ----------

outro
eb:--------------------------------
Bb:--------------------------------
Gb:--------------------------------
Db:-------3-------7-------7-------3
Ab:-------3-------7-------7-------3
Eb:0000-0-1-333-3-5-666-6-5-333-3-1
PM ------ ----- ----- -----

end
eb:0~---
Bb:--0~-
Gb:----0
Db:----2
Ab:----2
Eb:----0

fuck yous and mail bombs to
worldind138@aol.com
Другие песни: