MiscTwinkle Twinkle Little Star Punk Текст, аккорды

0 Голосов
Song Title: Twinkle Twinkle Little Star (punk style)

Tabbed By: Mark Munoz
Atrist: Unkown
Tuning: Standard

This song is pretty easy i kind of stumbled onto it i was strumming
power chords i was playing whats my age again by blink 182 and i just
figured it out.

ok here goes...


--------------------------------------------
--------------------------------------------
-----------7-7-7-7--9-9-9-9--7-7-7-7--------
--5-5-5-5--7-7-7-7--9-9-9-9--7-7-7-7--------
--5-5-5-5--5-5-5-5--7-7-7-7--5-5-5-5--------
--3-3-3-3-----------------------------------



--------------------------------------------
--------------------------------------------
--5-5-5-5--4-4-4-4--2-2-2-2-----------------
--5-5-5-5--4-4-4-4--2-2-2-2--5-5-5-5--------
--3-3-3-3--2-2-2-2--0-0-0-0--5-5-5-5--------
-----------------------------3-3-3-3--------



--------------------------------------------
--------------------------------------------
--7-7-7-7--5-5-5-5--4-4-4-4--2-2-2-2--------
--7-7-7-7--5-5-5-5--4-4-4-4--2-2-2-2--------
--5-5-5-5--3-3-3-3--2-2-2-2--0-0-0-0--------
--------------------------------------------



--------------------------------------------
--------------------------------------------
--7-7-7-7--5-5-5-5--4-4-4-4--2-2-2-2--------
--7-7-7-7--5-5-5-5--4-4-4-4--2-2-2-2--------
--5-5-5-5--3-3-3-3--2-2-2-2--0-0-0-0--------
--------------------------------------------



--------------------------------------------
--------------------------------------------
-----------7-7-7-7--9-9-9-9--7-7-7-7--------
--5-5-5-5--7-7-7-7--9-9-9-9--7-7-7-7--------
--5-5-5-5--5-5-5-5--7-7-7-7--5-5-5-5--------
--3-3-3-3-----------------------------------



--------------------------------------------
--------------------------------------------
--5-5-5-5--4-4-4-4--2-2-2-2-----------------
--5-5-5-5--4-4-4-4--2-2-2-2-------------5---
--3-3-3-3--2-2-2-2--0-0-0-0-------------5---
----------------------------------------3---
^ ^ ^
start to slow end on...
down



Thats it thats all it sounds really good if you mix in some
palm mutes and slides and bends. RATE PLEASE!
Другие песни: