MiscEnglish Beyblade Theme Текст

0 Голосов
This is the beyblade theme 100% correct . (note: this is not the jap version this is the

English version of the show) L.S TABS

Artist: sick kid
Title: beyblade theme

Intro/main riff
e-------------1--s---2-------------------------------6--s--7-----
b-------------1--s---2-------------------------------6--s--7-----
g------------------------------------4---------------------------
D--------4 -------------------------4----------------------------
A--------4---------------------1-h-2-----------------------------
E----1-h-2-------------------------------------------------------

Pre chorus

e---------------------------------------------------------
b---------------------------------------------------------
g-----------------------------------------#---(ending chorus)
D---13------11--------5----------------#--6-----8-----9---
A---13------11--------5----------------#--6-----8-----9---
E---11-------9---------7----------------#--4-----6-----7--

Verse

e--------------------------------------
b----------------(ending verse)--------
g---------4-------#---------6----------
D---4----4-------#--6-----6------------
A---4----2-------#--6-----4------------
E---2-------------#--4-----------------

Solo

e------------------------------------------------------------
b------------------------------------------------------------
g----6-------------------------------------------------------
D---6- -x2---------------------------------------------------
A---4-------s---7---9---9---7---9---7------------------------
E------------------------------------------------------------

Order

Intro/main riff x2
Pre chorus x1 ( do not play the ending pre chorus yet just pre chorus )
Verse x2 ( do not play the ending chorus yet just verse )
Pre chorus x1 ( do not play the ending pre chorus yet just pre chorus )
Intro/main riff x1
Verse x1
Ending verse x1
Pre chorus x2
Ending pre chorus x1 ( end on the ending solo & the last chord is( C#5 )
Другие песни: