MiscBass Licks Blues Текст

0 Голосов
owkay then, I'm gonna add some licks. I am not good at rhythm but this is my key:

/ slide up
slide down
: repeat
6h7 hammer-on
7p6 pull-of
6^bend
5~vibrato
x- ghost note
5+ harmonic

Rhytms:
w - whole note
h - half note
q - quarter note
e - eight note
s - sixteenth note
e
. - stacatto
wr - whole rest
hr - half rest
qr - quarter rest
er - eight rest
% - sixteenth rest
w. - not a whole, but a whole and a half

Lick 1
q er e q e e qr er e e e e e
G-------------0---------------0-|
D-----------0---------0-2-0-2--:|
A-----0-2----------------------:|
E-3-----------------------------|
lick 2
q er e e e e e q er e e e e e
G-------------------------------|
D---------------2--------------:|
A-----------2h4------4-2h4-----:|
E-0---0-3h4----------------3h4--|

lick 3
e e e e e e e e e e e e hr
G-2-5-2-0---------------------|
D---------2-0----------------:|
A-------------3-0-----3-0----:|
E-----------------3-0---------|

lick 4
e e e e e q e e e e
G-------|-------------------|
D-------|:-----1-----------:|
A---1-2-|:-3-3----3---1-2--:|
E-3-----|--.-.-----3--------|

enjoy!tabbed by justin van uum
Другие песни: