MiscAmerica The Beautiful Текст, аккорды

0 Голосов
Tabbed by: Flippy

Email:Vampiro361@aol.com

Tuning:Standard

this is my first tab and i've pretty much been playing for about 4 months now
so i am what you can say a rookie but i'm pretty sure this is right because i
had to play this at my school for the morning anouncments so.....enjoy

e|---------------------------------------------------------------------------|
B|----------------------------------------12---------------------------------|
G|-12-12--10-10--12-12--8-8--10-11--12-14----12------------------------------|
D|---------------------------------------------------------------------------|
A|---------------------------------------------------------------------------|
E|---------------------------------------------------------------------------|

e|--------------------------10-9-10--12----10--------------------------------|
B|--------------------------------------10-----------------------------------|
G|-12-12--10-10--12-12--8-8--------------------------------------------------|
D|---------------------------------------------------------------------------|
A|---------------------------------------------------------------------------|
E|---------------------------------------------------------------------------|

e|---12-12-10----------------------------------------------------------------|
B|-8----------13-13-12-12--13-15-12-10-8-13----------------------------------|
G|---------------------------------------------------------------------------|
D|---------------------------------------------------------------------------|
A|---------------------------------------------------------------------------|
E|---------------------------------------------------------------------------|

e|---------------------------------------------------------------------------|
B|-13-13--10-10--13-13--8-8---8-10-13-12----13-------------------------------|
G|---------------------------------------12----------------------------------|
D|---------------------------------------------------------------------------|
A|---------------------------------------------------------------------------|
E|---------------------------------------------------------------------------|
Другие песни: