Misc Unsigned BandsX-aisle - Raindrops Текст

0 Голосов
Band: X-aisle


This is our first tab ever, hope you like the riff. it's pretty simple. Just about
3 different change-overs, and the song pretty much repeats itself. For those who don't
already know, we're a new band called X-aisle, and we originate from nassau bahamas.
we're on on an alternative/metal vibe. the website's gonna be up soon, check us out
and download some samples.

Title:Once Again
Band:X-Aisle (eccsi'al)
Written by:A KELLY

key:(just to clarify)
#+x=amount of times to play
#/#=slide


This is the intro riff. continuous strumming

16X 16X 16X 16X
E--------------------------------------
B------11--------7------12------9-------
G------11--------7------12------9-------
D------11--------7------12------9--------
A-------9--------5------10------7-------
E----------------------------------------

Main rythm riff(runs straight throughout the song)
3X 3X
E--------------------------------------------------------
B--------------------------------------------------------
G--------------------------------------------------------
D--------------------------------------------------------
A--------------------------------------------------------
E---7----7/9--7/9---9------10-10-10-10----12---10--------


Chorus riff
12X 12X
E---------------------------------------
B---------------------------------------
G-----------12-----7------9-------------
D----9------12-----7------9-------------
A----9------10-----5------7-------------
E----7----------------------------------


verse riff 1

4x 3x 4x 3x 4x 3x 4x 3x
E--------------------------------------------------------
B--------------------------------------------------------
G--------------------------------------------------------
D----9---0---9---12---0---12---7---0---7---5---0---5-----
A----9---0---9---12---0---12---7---0---7---5---0---5-----
E----7---0---7---10---0---10---5---0---5---3---0---3-----


Chorus riff

12X 12X
E---------------------------------------
B---------------------------------------
G-----------12-----7------9-------------
D----9------12-----7------9-------------
A----9------10-----5------7-------------
E----7----------------------------------



verse riff 2

4x 3x 4x 3x 4x 3x 4x 3x
E--------------------------------------------------------
B--------------------------------------------------------
G--------------------------------------------------------
D----9---0---9---12---0---12---7---0---7---5---0---5-----
A----9---0---9---12---0---12---7---0---7---5---0---5-----
E----7---0---7---10---0---10---5---0---5---3---0---3-----


Chorus riff

12X 12X
E---------------------------------------
B---------------------------------------
G-----------12-----7------9-------------
D----9------12-----7------9-------------
A----9------10-----5------7-------------
E----7----------------------------------


outro riff, (same as intro,) then verse rif once, ring out last note.

16X 16X 16X 16X
E--------------------------------------
B------11--------7------12------9-------
G------11--------7------12------9-------
D------11--------7------12------9--------
A-------9--------5------10------7-------
E----------------------------------------


4x 3x 4x 3x 4x 3x 4x 3x
E--------------------------------------------------------
B--------------------------------------------------------
G--------------------------------------------------------
D----9---0---9---12---0---12---7---0---7---5---0---5-----
A----9---0---9---12---0---12---7---0---7---5---0---5-----
E----7---0---7---10---0---10---5---0---5---3---0---3-----




this is not the complete version, just a taste of the melody.

might as well ad the lyrics.


Once Again


Verse 1


I'm so tired
Of doing everything you say
You've expired
Only to return someday
I'm still hanging
Waiting for you do cut me down
I keep slipping
But never seem to touch the ground

Chorus

I got on without you yesterday
You came to destroy my everything
A twisted deceitful stroke of faith
Led me to believe you once again]


Verse 2

So let go
You're only purpose is
To break
A warm smile
A tender heart was my mistake
I fell down
Victim y you're bottomless lake
I will drown
Should I choose to retaliate.
Другие песни: