Misc Unsigned BandsThe Lighter Side Of Forever - Must Be An Angel Текст

0 Голосов
Artist: The Lighter Side of Forever

Song Name: Must Be an Angel
Tabbed By: The Lighter Side of Forever
Tuning: Standard

* - Let It Ring

Intro (2x)
E:----------------------------------------------------|
B:--------0-----------0-----------0-----------0-------|
G:------0---0-------0---0-------0---0-------0---0-----|
D:----0-------0---0-------0---0-------0---0-------0---|
A:--3-----------3-----------2-----------2-------------|
E:----------------------------------------------------|



E:-------------------------------------------------------------------|
B:-------0-----------0-----------0-----------0-----------0-------0---|
G:-----0---0-------0---0-------0---0-------0---0-------0-------0-----|
D:---0-------0---0-------0---0-------0---0-------0---0-------0-------|
A:-1-----------1-----------0-----------0-----------1-------2---------|
E:-------------------------------------------------------------------|



Verse 1 (2x)
E:----------------------------------------------------|
B:--------0-----------0-----------0-----------0-------|
G:------0---0-------0---0-------0---0-------0---0-----|
D:----0-------0---0-------0---0-------0---0-------0---|
A:----------------------------------------------------|
E:--3-----------3-----------2-----------2-------------|



E:--------------------------------------------------------------------|
B:--------0-----------0-----------0-----------0-----------0-------0---|
G:------0---0-------0---0-------0---0-------0---0-------0-------0-----|
D:----0-------0---0-------0---0-------0---0-------0---0-------0-------|
A:--------------------------------------------------------------------|
E:--1-----------1-----------0-----------0-----------1-------2---------|



Chorus (4x)
E:--x---x--x-x-x-x-x-x---|---x---x--x-x-x-x-x-x---|
B:--3---3--3-3-3-3-3-3---|---3---3--3-3-3-3-3-3---|
G:--0---0--0-0-0-0-0-0---|---0---0--0-0-0-0-0-0---|
D:--x---x--x-x-x-x-x-x---|---x---x--x-x-x-x-x-x---|
A:--3---3--3-3-3-3-3-3---|---2---2--2-2-2-2-2-2---|
E:--x---x--x-x-x-x-x-x---|---x---x--x-x-x-x-x-x---|



E:--x---x--x-x-x-x-x-x---|---x---x--x-x-x-x-x-x---|
B:--1---1--1-1-1-1-1-1---|---3---3--3-3-3-3-3-3---|
G:--0---0--0-0-0-0-0-0---|---0---0--0-0-0-0-0-0---|
D:--x---x--x-x-x-x-x-x---|---0---0--0-0-0-0-0-0---|
A:--1---1--1-1-1-1-1-1---|---x---x--x-x-x-x-x-x---|
E:--x---x--x-x-x-x-x-x---|---3---3--3-3-3-3-3-0---|



Verse 2 (2x)
E:----------------------------------------------------|
B:--------3-----------3-----------3-----------3-------|
G:------0---0-------0---0-------0---0-------0---0-----|
D:----0-------0---0-------0---0-------0---0-------0---|
A:--3-----------3-----------2-----------2-------------|
E:----------------------------------------------------|



E:--------------------------------------------------------------------|
B:--------3-----------3-----------3-----------3-----------3-------3---|
G:------0---0-------0---0-------0---0-------0---0-------0-------0-----|
D:----0-------0---0-------0---0-------0---0-------0---0-------0-------|
A:--1-----------1-----------0-----------0-----------1-------2---------|
E:--------------------------------------------------------------------|



E:----------------------------------------------------|
B:--------3-----------3-----------3-----------3-------|
G:------0---0-------0---0-------0---0-------0---0-----|
D:----0-------0---0-------0---0-------0---0-------0---|
A:----------------------------------------------------|
E:--3-----------3-----------2-----------2-------------|



E:--------------------------------------------------------------------|
B:--------3-----------3-----------3-----------3-----------3-------3---|
G:------0---0-------0---0-------0---0-------0---0-------0-------0-----|
D:----0-------0---0-------0---0-------0---0-------0---0-------0-------|
A:--------------------------------------------------------------------|
E:--1-----------1-----------0-----------0-----------1-------2---------|




Chorus (4x)
E:--x---x--x-x-x-x-x-x---|---x---x--x-x-x-x-x-x---|
B:--3---3--3-3-3-3-3-3---|---3---3--3-3-3-3-3-3---|
G:--0---0--0-0-0-0-0-0---|---0---0--0-0-0-0-0-0---|
D:--x---x--x-x-x-x-x-x---|---x---x--x-x-x-x-x-x---|
A:--3---3--3-3-3-3-3-3---|---2---2--2-2-2-2-2-2---|
E:--x---x--x-x-x-x-x-x---|---x---x--x-x-x-x-x-x---|



E:--x---x--x-x-x-x-x-x---|---x---x--x-x-x-x-x-x---x*---|
B:--1---1--1-1-1-1-1-1---|---3---3--3-3-3-3-3-3---3*---|
G:--0---0--0-0-0-0-0-0---|---0---0--0-0-0-0-0-0---0*---|
D:--x---x--x-x-x-x-x-x---|---0---0--0-0-0-0-0-0---0*---|
A:--1---1--1-1-1-1-1-1---|---x---x--x-x-x-x-x-x---x*---|
E:--x---x--x-x-x-x-x-x---|---3---3--3-3-3-3-3-3---3*---|
Другие песни: