Misc Unsigned BandsMinor Federation - Crushed Текст

0 Голосов
-------------------------------------------------------------------------------

NEVER KNOW - Minor Federation
-------------------------------------------------------------------------------

Tabbed by: Andy
Email: andy_minor_fed@hotmail.com


Intro
GUITAR 2

|---------------------------------------------------------------------------|
|---------------------------------------------------------------------------|
|-9--------6-6-4-2--4--------2----------------------------------------------|
|-9-9-7-6--6--------4-4-2-1--2-------------------------X2-------------------|
|-7--------4--------2--------0----------------------------------------------|
|---------------------------------------------------------------------------|

Chorus
GUITAR 1 & 2

|---------------------------------------------------------------------------|
|---------------------------------------------------------------------------|
|-99----99----66----66----2222----2222----4444----4444444-------------------|
|-99-99-99-99-66-66-66-66-2222-22-2222-22-4444-44-4444444--x2---------------|
|-77-99-77-99-44-66-44-66-0000-22-0000-22-2222-44-2222222-------------------|
|----77----77----44----44------00------00------22---------------------------|


Verse's
GUITAR 1
|---------------------------------------------------------------------------|
|---------------------------------------------------------------------------|
|---------------------------------------------------------------------------|
|-99999999-66666666-22222222-44444444---------------------------------------|
|-77777777-44444444-00000000-22222222---------------------------------------|
|---------------------------------------------------------------------------|
PM...................................

GUITAR 2
|---------------------------------------------------------------------------|
|---------------------------------------------------------------------------|
|---------------------------------------------------------------------------|
|-9-----6-----2----4--------------------------------------------------------|
|--9-----6-----2----4-------------------------------------------------------|
|---------------------------------------------------------------------------|

Bridge
GUITAR 1 & 2
|---------------------------------------------------------------------------|
|---------------------------------------------------------------------------|
|-9----6--------------------------------------------------------------------|
|-9----6----6----77767------------------------------------------------------|
|-7----4----6----77767------------------------------------------------------|
|-----------4----55545------------------------------------------------------|


| / slide up
| slide down
| h hammer-on
| p pull-off
| ~ vibrato
| + harmonic
| x Mute note

===============================================================================
Другие песни: