Misc Unsigned BandsGavina - Fender Bender Текст

0 Голосов
Gavina is my band WE ROCK!!!!

Guitar tab
Fender Bender

Intro(4x) Play last time around
E |-------------------------------------------------|----------------
B |-------------------------------------------------|----------------
G |-5--5--5--5--3--3--3--3--2--2--2--2--2--2--2--2--|----------------
D |-3--3--3--3--3--3--3--3--3--3--3--3--3--3--3--3--|--3-------------
A |-------------------------------------------------|--1-------------
E |-------------------------------------------------|----------------


Intro 2/Chorus(4x) 1st & 3rd 2nd & last
E |----------------------------|-----------|-------------------------
B |----------------------------|-----------|-------------------------
G |----------------------------|-----------|-------------------------
D |----------3--3--3--5--5--5--|--3--5--5--|--3--3-------------------
A |-3--3--3--1--1--1--3--3--3--|--1--3--3--|--1--1-------------------
E |-1--1--1--------------------|-----------|-------------------------


Verse(4x)
E |------------------------------------------------------------------
B |------------------------------------------------------------------
G |------------------------------------------------------------------
D |-------------5--5--5--5--3--3--3--3--3--3--3--3-------------------
A |-3--3--3--3--3--3--3--3--1--1--1--1--1--1--1--1-------------------
E |-1--1--1--1-------------------------------------------------------


Chorus(4x) 1st & 3rd 2nd & 4th
E |----------------------------|-----------|-------------------------
B |----------------------------|-----------|-------------------------
G |----------------------------|-----------|-------------------------
D |----------3--3--3--5--5--5--|--3--5--5--|--3--3-------------------
A |-3--3--3--1--1--1--3--3--3--|--1--3--3--|--1--1-------------------
E |-1--1--1--------------------|-----------|-------------------------


Intro(4x) play 4th
E |-------------------------------------------------|----------------
B |-------------------------------------------------|----------------
G |-5--5--5--5--3--3--3--3--2--2--2--2--2--2--2--2--|--3--3--3-------
D |-3--3--3--3--3--3--3--3--3--3--3--3--3--3--3--3--|--3--3--3-------
A |-------------------------------------------------|----------------
E |-------------------------------------------------|----------------


Verse(4x)
E |------------------------------------------------------------------
B |------------------------------------------------------------------
G |------------------------------------------------------------------
D |-------------5--5--5--5--3--3--3--3--3--3--3--3-------------------
A |-3--3--3--3--3--3--3--3--1--1--1--1--1--1--1--1-------------------
E |-1--1--1--1-------------------------------------------------------


Chorus(4x) 1st & 3rd 2nd & 4th
E |----------------------------|-----------|-------------------------
B |----------------------------|-----------|-------------------------
G |----------------------------|-----------|-------------------------
D |----------3--3--3--5--5--5--|--3--5--5--|--3--3-------------------
A |-3--3--3--1--1--1--3--3--3--|--1--3--3--|--1--1-------------------
E |-1--1--1--------------------|-----------|-------------------------


Bridge 1(3x)
E |------------------------------------------------------------------
B |------------------------------------------------------------------
G |------------------------------------------------------------------
D |-7--7--7--7--7--7--7--7--5--5--5--5--5--5--5--5-------------------
A |-5--5--5--5--5--5--5--5--3--3--3--3--3--3--3--3-------------------
E |------------------------------------------------------------------



E |----------------------------------------|--------|----------------
B |----------------------------------------|--------|----------------
G |----------------------------------------|--------|----------------
D |-3--3--3--3--3--3--3--3--3--3--3--3--3--|--5--7--|----------------
A |-1--1--1--1--1--1--1--1--1--1--1--1--1--|--3--5--|----------------
E |----------------------------------------|--------|----------------


Bridge 2(1x)
E |------------------------------------------------------------------
B |------------------------------------------------------------------
G |-------------------------5--5--5--5--5--5--5--5-------------------
D |-7--7--7--7--7--7--7--7--3--3--3--3--3--3--3--3--5----------------
A |-5--5--5--5--5--5--5--5--------------------------3----------------
E |------------------------------------------------------------------


Chorus(8x) Let ring 8th time
E |----------------------------|-----------|----------------
B |----------------------------|-----------|----------------
G |----------------------------|-----------|----------------
D |----------3--3--3--5--5--5--|--3--5--5--|----------------
A |-3--3--3--1--1--1--3--3--3--|--1--3--3--|--3-------------
E |-1--1--1--------------------|-----------|--1-------------
Другие песни: