Misc Unsigned BandsConveyor Belts - Green Valley Текст

0 Голосов
Upcoming Band out of Georgia


(chorus)
-------------------------|
22222222---------3p2p0h2-|
22222222--3p2p0h2--------| (6 times)
-------------------------|
-------------------------|
-------------------------|

(Verse) p.m.
11111-555-9--5------|
33333-777-11-7-2222-|
33333-777-11-7-2222-|
--------------------|
--------------------|
--------------------|

Chorus
Verse
Verse

OUtro
3-----3-----3--------------------|
3-----3-----3------------3p2p0h2-|
3---3-3-----3---3-3p2p0h2--------|
--32----325---32-----------------|
---------------------------------|
---------------------------------|
Другие песни: