Misc Unsigned BandsChili Cheese Fries - No Fear Текст

0 Голосов
ch2f.tripod.com

USA
Artist: Chili Cheese Fries
Album: No Fear
Song: No Fear
tabbed by The Swindle man

Its really easy to play just get in the groove.

Main verse: play with heavy Dist.
E----------------------------------------------------------------
B----------------------------------------------------------------
G----------------------------------------------------------------
D--2----5-5--7-7-7-----------------------------------------------
A--2-x5-5-5--7-7-7-----------------------------------------------
E--0----3-3--5-5-5-----------------------------------------------

Second verse: PLay clean no Dist.
E----------------------------------------------------------------
B----------------------------------------------------------------
G-------------5--------------------------------------------------
D--7-7-7-7-7--5-5-5----------------------------------------------
A--7-7-7-7-7--3-5-5----------------------------------------------
E--5-5-5-5-5----3-3----------------------------------------------

thats pretty easy then goes the middle solo riff along with the solo:

E----------------------------------------------------------------
B----------------------------------------------------------------
G----------------------------------------------------------------
D--9-9-9-9-9---12-12---14-14-------------------------------------
A--9-9-9-9-9---12-12---14-14-------------------------------------
E--7-7-7-7-7---10-10---12-12-------------------------------------


Solo:
E----------------------------------------------------------------
B--12-12-12-12s--3-s/-15-15-/12-12-12--repeat-------------------
G----------------------------------------------------------------
D----------------------------------------------------------------
A----------------------------------------------------------------
E----------------------------------------------------------------

tabeed by theswindle3@hotmail.com
any questions just contact me.
Другие песни: