Misc Unsigned BandsBrian Pritchett - Lost Fields Текст

0 Голосов
I am a guitarist who is just wanting to get his songs on the net and possibly viewed by others.

Please post!

-------------------------------------------------------------------------------
Lost Fields - Brian Pritchett
-------------------------------------------------------------------------------
Tabbed by: Brian Pritchett
Email: deadmannwalkn@yahoo.com

Tuning: Half a step down

Intro

eb|----------------------------|
Bb|-----8-----6-----5-----6~~~~|
Gb|-------9-----7-----5---7~~~~| X2
Db|---0-----0-----0-----0-0~~~~|
Ab|-0--------------------------|
Eb|----------------------------|

eb|------------------------------------------------------------|
Bb|-----8-----10------11------10~~~~----8-----6-----5-----6~~~~|
Gb|-------9------10------12---10~~~~------9-----7-----5---7~~~~|
Db|---0-----0-------0-------0--0~~~~--0-----0-----0-----0-0~~~~|
Ab|-0-------------------------------0--------------------------|
Eb|------------------------------------------------------------|

eb|--------------------------------------------------------|
Bb|-----8-----6-----5-----6~~~~----8-----6-----5-----10~~~~|
Gb|-------9-----7-----5---7~~~~------9-----7-----5---10~~~~|
Db|---0-----0-----0-----0-0~~~~--0-----0-----0-----0--0~~~~|
Ab|-0--------------------------0---------------------------|
Eb|--------------------------------------------------------|

eb|------------------------------------------------------------|
Bb|-----8-----10------11------10~~~~----8-----6-----5-----3~~~~|
Gb|-------9------10------12---10~~~~------9-----7-----5---2~~~~|
Db|---0-----0-------0-------0--0~~~~--0-----0-----0-----0-0~~~~|
Ab|-0-------------------------------0--------------------------|
Eb|------------------------------------------------------------| End Intro

eb|---------------------------------------------------------------|
Bb|-----0^1---1---------------------------------------------------|
Gb|-----0^2-----2-------0^2-2---0-----0^4---4---------0^2---2-----| X2
Db|---2-----------0---0-0-----0-------5-------5-------3-------3---|
Ab|-0-------0-------2---------------5-----------5---3-----------3-|
Eb|-------------------------------3-------3-------1-------1-------|

eb|-----------------------------------| eb|---------------|
Bb|-----------2-2^3-0-----------------| Bb|---------0-----|
Gb|-----4-----------------------------| Gb|-----1-----1---|
Db|---4---4---------------5-------4---| X10 Db|-----2-------2-|
Ab|-2-------0-----------5---5---4---4-| Ab|---2-----------|
Eb|-------------------3-------2-------| Eb|-0-----0-------|

eb|---------------------------------------------------------------|
Bb|-----0^1---1---------------------------------------------------|
Gb|-----0^2-----2-------0^2-2---0-----0^4---4---------0^2---2-----| X2
Db|---2-----------0---0-0-----0-------5-------5-------3-------3---|
Ab|-0-------0-------2---------------5-----------5---3-----------3-|
Eb|-------------------------------3-------3-------1-------1-------|

eb|-----------------------------------| eb|---------------|
Bb|-----------2-2^3-0-----------------| Bb|---------0-----|
Gb|-----4-----------------------------| Gb|-----1-----1---|
Db|---4---4---------------5-------4---| X4 Db|-----2-------2-|
Ab|-2-------0-----------5---5---4---4-| Ab|---2-----------|
Eb|-------------------3-------2-------| Eb|-0-----0-------|

eb|---------------------------------------------------------------|
Bb|-----0^1---1---------------------------------------------------|
Gb|-----0^2-----2-------0^2-2---0-----0^4---4---------0^2---2-----| X4
Db|---2-----------0---0-0-----0-------5-------5-------3-------3---|
Ab|-0-------0-------2---------------5-----------5---3-----------3-|
Eb|-------------------------------3-------3-------1-------1-------|

~Lyrics~

Lost fields in your head
Never know what's to know
Lost fields all around
Lose your mind in time

Search for understanding
Unknown to many
Falling from the sky
Screeching of their cries

Holding onto home
Losing of the throne
Denying all the words
As if you've never heard

Lost fields in your head
Never know what's to know
Lost fields all around
Lose your mind in time

Lifestyles of the fame
They drive you insane
Sitting on your thrown
Imaginary home

Lost fields in your head
Never know what's to know
Lost fields all around
Lose your mind in time
Другие песни: