Misc Unsigned BandsBehind Our Minds - In This Room Текст

0 Голосов
-------------------------------------------------------------------------------

www.purevolume.com/BehindOurMinds
In This Room - Behind Our Minds
-------------------------------------------------------------------------------
Tabbed by:Eric Pihl
Email:

Tuning:dropped d
Intro- 2 times
|---------------------------------------------------------------------------|
|---------------------------------------------------------------------------|
|777777777777777777777777777777777------------------------------------------|
|777777777777777777777777777777777------------------------------------------|
|555555555555-----------9999999999------------------------------------------|
|555555555555777777777779999999999------------------------------------------|
Intro pt. 2- 5 times
|---------------------------------------------------------------------------|
|---------------------------------------------------------------------------|
|---------------------------------------------------------------------------|
|99-77-55555555-------------------------------------------------------------|
|99-77-55555555-------------------------------------------------------------|
|99-77-55555555-------------------------------------------------------------|
Chorus- 4 times
|---------------------------------------------------------------------------|
|---------------------------------------------------------------------------|
|---------------------------------------------------------------------------|
|555555550-77777771/999999999999--------------------------------------------|
|555555550-77777771/999999999999--------------------------------------------|
|555555550-77777771/999999999999--------------------------------------------|
Verse- 4 times
|---------------------------------------------------------------------------|
|---------------------------------------------------------------------------|
|---------------------------------------------------------------------------|
|9999-9999-5555-------------------------------------------------------------|
|9999-9999-5555-------------------------------------------------------------|
|9999-9999-5555-------------------------------------------------------------|
Chorus- 3 times
|---------------------------------------------------------------------------|
|---------------------------------------------------------------------------|
|---------------------------------------------------------------------------|
|55555550-77777771/999999999999---------------------------------------------|
|55555550-77777771/999999999999---------------------------------------------|
|55555550-77777771/999999999999---------------------------------------------|
Verse- 4 times
|---------------------------------------------------------------------------|
|---------------------------------------------------------------------------|
|---------------------------------------------------------------------------|
|9999-9999-5555-------------------------------------------------------------|
|9999-9999-5555-------------------------------------------------------------|
|9999-9999-5555-------------------------------------------------------------|
Chorus- 4 times
|---------------------------------------------------------------------------|
|---------------------------------------------------------------------------|
|---------------------------------------------------------------------------|
|5555555577777777999999999999-----------------------------------------------|
|5555555577777777999999999999-----------------------------------------------|
|5555555577777777999999999999-----------------------------------------------|
Intro- 2 times
|---------------------------------------------------------------------------|
|---------------------------------------------------------------------------|
|777777777777777777777777777777777777---------------------------------------|
|777777777777777777777777777777777777---------------------------------------|
|555555555555------------999999999999---------------------------------------|
|555555555555777777777777999999999999---------------------------------------|
4 times
|---------------------------------------------------------------------------|
|---------------------------------------------------------------------------|
|---------------------------------------------------------------------------|
|5555555577777777999999999999-----------------------------------------------|
|5555555577777777999999999999-----------------------------------------------|
|5555555577777777999999999999-----------------------------------------------|
2 times
|---------------------------------------------------------------------------|
|---------------------------------------------------------------------------|
|---------------------------------------------------------------------------|
|5-555-5-555-7-777-7-777-9-999-9-999-9-999----------------------------------|
|5-555-5-555-7-777-7-777-9-999-9-999-9-999----------------------------------|
|5-555-5-555-7-777-7-777-9-999-9-999-9-999----------------------------------|
4 times
|---------------------------------------------------------------------------|
|---------------------------------------------------------------------------|
|---------------------------------------------------------------------------|
|5555555577777777999999000000999999000000-----------------------------------|
|5555555577777777999999000000999999000000-----------------------------------|
|5555555577777777999999000000999999000000-----------------------------------|


| / slide up
| slide down
| h hammer-on
| p pull-off
| ~ vibrato
| + harmonic
| x Mute note
===============================================================================
Другие песни: