Misc Unsigned BandsAlchobus - 1st Song Текст

0 Голосов
band : alchobus



h=hammer on string


VERSE

G---------------------------------------------------
D---------------------------------------------------
A---------------------------------------------------
E--3-3-3-3-3-8-8-8-6-5-5-5-5-5--10-10-10-8-6-6-6-6-6

G---------------------------------------------------
D---------------------------------------------------
A--------------------------------------------------- x2
E--8-8-8-6-5-5-5-5-5--10-10-10-8-3------------------

CHORUS

G---------------------------------------------------
D---------------------------------------------------
A--3-3-3-3-3-8-8-8-6-5-5-5-5-5--10-10-10-8-6-6-6-6-6
E---------------------------------------------------

G---------------------------------------------------
D---------------------------------------------------
A--8-8-8-6-5-5-5-5-5--10-10-10-8-h3----------------- x2
E---------------------------------------------------



That's Basically It For Now, Look For More Of Our Songs Soon!!!!!
Другие песни: