Misc TraditionalRudolph The Red Nose Reindeer Текст, аккорды

0 Голосов
RUDOLPH THE RED-NOSED REINDEER

Arranged for guitar by Mark Leslie
* * * * * * * * * * * * * * * * * * * *

ive seen this on here before i wanted to make it easier tho this may not be right
but oh well



e|--------|---------------------|------------------|
B|-----0--|--1---------0--------|------------------|
G|--2-----|-----2---------0-----|--2---------2--0--|
D|--------|--------3---------2--|-----3------------|
A|--------|---------------------|--------5---------|
E|--------|---------------------|------------------|

You Know Dasher + Dancer + Prancer + Vixen....


|-----------------|---------------|------------------|-------------------|
|-----------------|---------------|------------------|-------------------|
|-----------------|--2------2--4--|--5--5---5--4--2--|-0------0----------|
|--2---2---2---2--|---------------|------------------|-------------------|
|-----------------|---------------|------------------|-------------------|
|-----------------|---------------|------------------|-------------------|

But do you re- call the most famous reindeer of all?


|--------------------|-----------|---------------------|-----------------|
|-----------------1--|-----------|------------------1--|---0-------------|
|--0---2---0---------|--2----0---|--0--2--0--2--0------|-----------------|
|--------------2-----|-----------|---------------------|-----------------|
|--------------------|-----------|---------------------|-----------------|
|--------------------|-----------|---------------------|-----------------|

Rudolph the red nosed reindeer, had a ver-y shin-y nose


|-------------------|----------|-------------------------|---------------|
|----------------0--|----------|-------------------------|---------------|
|-----0-------------|--2----0--|--0---2---0---2---0---2--|---0-----------|
|--3-----3---0------|----------|-------------------------|---------------|
|-------------------|----------|-------------------------|---------------|
|-------------------|----------|-------------------------|---------------|

And if you ev--er saw it, you would ev-en say it glows


|--------------------|-----------|------------------------|--------------|
|-----------------1--|-----------|---------------------1--|---0----------|
|--0---2---0---------|--2----0---|--0--2---0----2--0------|--------------|
|--------------2-----|-----------|------------------------|--------------|
|--------------------|-----------|------------------------|--------------|
|--------------------|-----------|------------------------|--------------|

All of the other reindeer used to laugh + call him names


|-------------------|----------|-------------------------|---------------|
|----------------0--|----------|----------------------3--|---1-----1-----|
|-----0-------------|--2----0--|--0---2---0---2----------|---------------|
|--3-----3---0------|----------|------------------0------|---------------|
|-------------------|----------|-------------------------|---------------|
|-------------------|----------|-------------------------|---------------|

They never let poor Rudolph join in any reindeer games


|-----------------|---------------|----------------|---------------------|
|----------1------|---------------|----------------|---------2-----------|
|--2---2-------2--|--0---------0--|-----2---0------|---------------------|
|-----------------|-------2-------|--3----------3--|--2------------------|
|-----------------|---------------|----------------|---------------------|
|-----------------|---------------|----------------|---------------------|

Then one fogg-y Christmas eve Santa came to say


|-----------------|---------------|--------------------|-----------------|
|-----------------|--0---0---0----|--1----1----0-------|-----------------|
|----------0---2--|---------------|-----------------2--|--0--------------|
|--0---2----------|---------------|--------------------|-------3----0----|
|-----------------|---------------|--------------------|-----------------|
|-----------------|---------------|--------------------|-----------------|

Rudolph with your nose so bright Won't you guide my sleigh tonight?


|--------------------|-----------|--------------------------|------------|
|-----------------1--|-----------|-----------------------1--|---0--------|
|--0---2---0---------|--2----0---|--0---2---0---2---0-------|------------|
|--------------2-----|-----------|--------------------------|------------|
|--------------------|-----------|--------------------------|------------|
|--------------------|-----------|--------------------------|------------|

Then how the reindeer loved him as they shouted out with glee


|----------------------|----------|--------------------------|--0--------|
|-------------------0--|----------|-----------------------3--|-----------|
|------0---------------|--2----0--|--0----2---0---2---0------|-----------|
|--3-------3---0-------|----------|--------------------------|-----------|
|----------------------|----------|--------------------------|-----------|
|----------------------|----------|--------------------------|-----------|

Rudloph the red nosed reindeer you'll go down in his--to---ry!
Другие песни: