Misc TelevisionRugrats Текст

0 Голосов
This is my tab of the rugrats theme song from the tv show!


the song goes in this order :riff 1....riff 2...riff 1...riff 3

RIFF 1 RIFF 2
e |------0-2-4-5---4-0-2-0-- --------0-2-4-5--7-4-5-4-2-|
B |--2-3-------------------3 ----2-3--------------------|
G |------------------------- ---------------------------|
D |------------------------- ---------------------------|
A |------------------------- ---------------------------|
E |------------------------- ---------------------------|

RIFF 3
e |----0-2-4-5-7-5-4-2-0--------|
B |2-3--------------------3---2-|
G |-----------------------------|
D |-----------------------------|
A |-----------------------------|
E |-----------------------------|


e-mail your comments and requests to suds00789@aol.com
Другие песни: