Misc TelevisionMxc Theme Текст

0 Голосов
this is the theme to one of the funniest tv shows i've seen in a while.

GIT IT ON!

MAIN RIFF

e---------------------------------------------
B---------------------------------------------
G------------------------------------5--5--5--
D----------2----------3----------4---3--3--3--
A--0-3-0-3----0-3-0-3----0-3-0-3--------------
E---------------------------------------------

REPEAT HOWEVER MANY BARS IT IS

VARIATION 1

e------------------------------------------------------------
B---------------------------------------------------6--6--6--
G--5--5-5-5-5-5-5-5-5-5-5-5-5-5-5--7---7-7-7-7-7-7--5--5--5--
D--5--5-5-5-5-5-5-5-5-5-5-5-5-5-5--7---7-7-7-7-7-7--3--3--3--
A--3--3-3-3-3-3-3-3-3-3-3-3-3-3-3--5---5-5-5-5-5-5-----------
E------------------------------------------------------------
X X X X X X X X X X X X X X X X X X X X

VARIATION 2

Guitar 1

e---------------------------------------------
B---------------------------------------------
G------------------------------------5--5--5--
D----------2----------3----------4---3--3--3--
A--0-3-0-3----0-3-0-3----0-3-0-3--------------
E---------------------------------------------

Guitar 2

e-------------------------------------------------------------------
B--5-5-5-5-5-5-5-5-6-6-6-6-6-6-6-6-7-7-7-7-7-7-7-7-6-6-6-6-6-6-6-6--
G-------------------------------------------------------------------
D-------------------------------------------------------------------
A-------------------------------------------------------------------
E-------------------------------------------------------------------

DON'T...GET...ELIMINATED!!!
Другие песни: