Misc TelevisionBeverly Hills 902 Текст

0 Голосов
Beverly Hills 90210 Theme

Tabbed by Anders Vendrup
Grafilator@jubiipost.dk
This is my version of it feel free to make any changes if you want to.
Listen to the song then you'll get a sense of the rythm in the song....

Enjoy!!!

Intro chords:
C# C# Eb Eb
G# G# Bb Bb (Clap Clap)

C# C# Eb Eb
G# G# Bb Bb EbC#

C# C# Eb Eb
G# G# Bb Bb
Bb Gm Eb
----------------------------------------------13-15-13------------------------13-15-13-|
----------------------13-15----------13-15-16------------------------13-15-16----------|
-------------13----15-------------15---------------------15------15--------------------|
----------13----15-------------15-----------------------------15-----------------------|
----13-16------------------------------------------------------------------------------|
-16------------------------------------------------------------------------------------|
F Bb
-------------------------15-13-------------------|
-16-16-15-13-------------------16-15-16-15-------|
-------------15-14-15----------------------15----|
----------------------------------------------15-|
-------------------------------------------------|
-------------------------------------------------|
Bb Gm Eb
-------------------------------13-15-13------------------------13-15-13-|
-------13-15----------13-15-16------------------------13-15-16----------|
----15-------------15---------------------15------15--------------------|
-15-------------15-----------------------------15-----------------------|
------------------------------------------------------------------------|
------------------------------------------------------------------------|
F Bb C# G# Bb
-----------------------------16-15-15-13-13----------13--------------|
-16-16-15-13--------------------------------16-16-15----13-11-13-11--|
-------------15-14-15------------------------------------------------|
---------------------------------------------------------------------|
---------------------------------------------------------------------|
---------------------------------------------------------------------|
C# Eb F Bend to F>/ / /
-18-18-15-13-----16-15-15-13-13-------------13-13-17-20-20-22-24-24-24-24-|
--------------------------------16-16-15-16-------------------------------|
--------------------------------------------------------------------------|
--------------------------------------------------------------------------|
--------------------------------------------------------------------------|
--------------------------------------------------------------------------|

Bb C#
G# Bb C# Eb Bb C# G# Bb C#
-----------------------------11--9--6-------16-16----18-18------------------|
----------------------------------------------------18----------------------|
----8^-8-6-8-6-8-6----------------------------------------------------------|
-------------------8--------------------------------------------------------|
----------------------------------------------------------------------------|
----------------------------------------------------------------------------|
Eb Bb Gm
--------------------------------------18------------------------------|
--------------------------------18-21------15-16-18-18----15-16-18-18-|
--------------------18h20p18------------------------------------------|
--------18h20p18-------------20---------------------------------------|
--18-20----------20---------------------------------------------------|
----------------------------------------------------------------------|
Eb F Bb F# G# Bb F# G# Bb
---------------------------------------------------------------------|
16-15-16-18-18-16-16-15-13-------------------------------4-----------|
---------------------------15-14-15---------------5^-5-3---5^-5-3----|
---------------------------------------------------------------------|
---------------------------------------------------------------------|
---------------------------------------------------------------------|
Другие песни: