Misc SoundtrackZelda 2 Theme Текст

0 Голосов
#----------------------------------PLEASE NOTE---------------------------------#
#This file is the author's own work and represents their interpretation of the #
#song. You may only use this file for private study, scholarship, or research. #
#------------------------------------------------------------------------------#
#


From mozart@epix.net Sun May 4 10:42:21 1997
Date: Mon, 24 Mar 1997 07:40:55 -0500 (EST)
From: hades
To: guitar@olga.net
Subject: zelda_2_theme.tab


Well, This is my second tab. Lemme know what you think I'm working
on a couple more Nintendo game tabs for people. I've gotten a lot of
requests for this. So, if you have any questions or comments, Lemme know
mozart@epix.net. also, if you feel like talking guitar, just mail me.
BTW- All the stuff I tabbed so far is good using finger picking. You can do
it easily with a pick, but it's better without.

I did this becasue of bordem, My jackson is in the shop now. So,
I'm using my 12-string acoustic. I've stripped 6 strings off so I can play
this stuff. Well, I'll stop bitching and let you get to it! :)

-------------------------------
Zelda 2, the Adventure of Link
-------------------------------
Intro:

e:-----------------|------------------|-----------------|------------------|
b:--11p-10---------|---11p-10---------|--11p-10---------|---11p-10---------|
g:----------10-----|-----------10-----|----------10-----|-----------10-----|
D:--------------10-|---------------10-|--------------10-|---------------10-|
A:-----------------|------------------|-----------------|------------------|
E:-----------------|------------------|-----------------|------------------|


e:-----------------|-----------------|-----------------|-----------------|
b:-----------------|-----------------|-----------------|-----------------|
g:-----------------|-----------------|-----------------|-----------------|
D:-----------------|-----------------|-----------------|-----------------|
A:--13p-12---------|--13p-12---------|--13p-12---------|--13p-12---------|
E:----------13--10-|----------13--10-|----------13--10-|----------13--10-|

Main Theme

e:----------------|-----------------|-------------|----------------------|
b:---1-------1----|-----------------|-------------|----------------------|
g:---2------------|---3-------------|--6------6---|--0-------------------|
D:-------3--------|---5-------------|--6---6--6---|--2----------2--------|
A:----------------|------------3----|--4---4------|--3------3--------3---|
E:---1------------|-----------------|-------------|----------------------|

e:----------------|----------------|--------------|----------------------|
b:--1-----6---4---|--4-------------|--------------|--1-------------------|
g:--2-----2---2---|--0-------------|--6-------6---|-------0--------------|
D:--3-------------|--1-------------|--6---6---6---|--2----2----2---------|
A:----------------|-----------3----|--4---4-------|--3-------------------|
E:--1-------------|----------------|--------------|----------------------|

e:----------------|-------------|-----------------|------------0---------|
b:----------------|-------------|-----------------|------------5---------|
g:---5----5----5--|--6--6---6---|-----7---7---7---|--0---------3---------|
D:---7----7----7--|--8--8---8---|-----9---9---9---|-10-------------------|
A:---8----8----8--|--8--8---8---|-----8---8---8---|--8---------3---------|
E:----------------|-------------|-----------------|----------------------|

e:--------------|--------------|--------------|--------------------------|
b:--------------|--------------|--------------|--------------------------|
g:-----3--2-----|--------------|--------------|--------------------------|
D:-----------3--|--------------|-1--0---------|--------------------------|
A:--------------|--3--0--1--3--|-------3--1---|-3---1-----0--------------|
E:--1--1--1--1--|--1--1--1--1--|--------------|-1------1----1-----1------|


e:--------------|--------------|--------------|--------------------------|
b:--------------|--------------|--------------|--------------------------|
g:-----3--2-----|--------------|--------------|--------------------------|
D:-----------3--|--------------|-1--0---------|--------------------------|
A:--------------|--3--0--1--3--|-------3--1---|-3---1-----0--------------|
E:--1--1--1--1--|--1--1--1--1--|--------------|-1------1----1-----1------|




e:--------------4--|------------------|---------------4--|------------------|
b:-------4---6-----|--------1---------|--------4---6-----|-1----------------|
g:----6------------|--0------------0--|-----6------------|----1---0---------|
D:-6--6------6--6--|--2--2-----2---2--|-6---6------6--6--|-2---2-----2---2--|
A:-4--4------4--4--|--3--3--3------3--|-4---4------4--4--|-3---3-----3---3--|
E:-----------------|------------------|------------------|------------------|

e:--------------4--|------------------|---------4--6-----|------------------|
b:-------4---6-----|--------1---------|------------------|--1---------------|
g:----6------------|--0------------0--|-----6------------|------------------|
D:-6--6------6--6--|--2--2-----2---2--|-6---6---6--6-----|--2--2--2---2-----|
A:-4--4------4--4--|--3--3--3------3--|-4---4---4--4-----|--3--3--3---3-----|
E:-----------------|------------------|------------------|------------------|


e:------|
b:--1---|
g:--2---|
D:--3---|
A:------|
E:--1---|

X = muffled string
------- = strings
= slide down guitar
/ = slide up guitar
h = hammer-on
p = pull-off
t = tap with right hand (pick hand)
b = bend to the note specified (1/2 note is the same as 1 fret)

Sean Connolly
mozart@epix.net
The Heart of Hell BBS - 717-343-7604 -- MANY Music related/tab files.
Другие песни: