Misc SoundtrackX Men Текст

0 Голосов
Title: X-Men Theme

Transcribed by: Mark Casey
Email: pennybridge_pioneer69@hotmail.com



Here is the intro bassline that is repeated throughout:

------------------------------------------------------------------------------
---------0-0-----0-0-0-0-2-2-0-0---------0-0-----0-0-0-0-2-2-0-0--------------
-2-2-2-2-----2-2-----------------2-2-2-2-----2-2------------------------------
------------------------------------------------------------------------------

then for the guitar part: (listen for the rhythm)

------------------------------------------------------------------------------
-----2-3-2-------------2-3-2------------2-3-2----3----2-----------------------
---4--------4--------4--------4-------4--------4--------4---------------------
-4------------4----4------------5---4-----------------------------------------
------------------------------------------------------------------------------
------------------------------------------------------------------------------


------------------------------------------------------------------------------
---5-7-8-7--5-------5-7-8-7--5---------2-3-2----3----2------------------------
-4------------4---4------------5-----4--------4--------4----------------------
-----------------------------------4------------------------------------------
------------------------------------------------------------------------------
------------------------------------------------------------------------------

then there is another bassline:

------------------------------------------------------------------------------
-4-4-4-4-4-4-4-4-4-4-4-4-4-4-4-4-5-5-5-5-5-5-5-5-5-5-5-5-5-5-5-5--------------
------------------------------------------------------------------------------
------------------------------------------------------------------------------

------------------------------------------------------------------------------
-7-7-7-7-7-7-7-7-7-7-7-7-5-5-5-5-4-4-4-4-4-4-4-4-4----------------------------
------------------------------------------------------------------------------
------------------------------------------------------------------------------

then back to the guitar:

------------------------------------------------------------------------------
-----2-3-2----3-------2-3-2------------2-3-2---3----2-------------------------
---4--------4-------4--------4-------4-------4--------4-----------------------
-4----------------4------------5---4------------------------------------------
------------------------------------------------------------------------------
------------------------------------------------------------------------------


------------------------------------------------------------------------------
---5-7-8-7--5-------5-7-8-7--5-------2-3-2----3----2--------------------------
-4------------4---4------------5------------4--------4------------------------
-----------------------------------4------------------------------------------
------------------------------------------------------------------------------
------------------------------------------------------------------------------

then back to the bassline:

------------------------------------------------------------------------------
-4-4-4-4-4-4-4-4-4-4-4-4-4-4-4-4-5-5-5-5-5-5-5-5-5-5-5-5-5-5-5-5--------------
------------------------------------------------------------------------------
------------------------------------------------------------------------------

------------------------------------------------------------------------------
-7-7-7-7-7-7-7-7-7-7-7-7-5-5-5-5-4-4-4-4-4-4-4-4-4----------------------------
------------------------------------------------------------------------------
------------------------------------------------------------------------------

then for the ending:

-------------------2-7vvv-----------------------------------------------------
-----2-3-2----3---------------------------------------------------------------
---4--------4-----------------------------------------------------------------
-4----------------------------------------------------------------------------
------------------------------------------------------------------------------
------------------------------------------------------------------------------
Другие песни: