Misc SoundtrackStar Wars Episode One Theme Текст

0 Голосов
Song: Star Wars Theme, as heard on Episode One
Tabbed By: Deman Deman669@Hotmail.com

Legend
------

h = hammer-on
p = pull-off
b = bend
r = bend release
/ = slide up/down
= natural harmonic
[5] = artifical harmonic
~ = vibrato
tr = trill


Note: This is in the same octave as the movie, but It's a little harder to
play. The
Set Below Is an octave lower


*This can also be played at the 10th fret, D string
|
G|-------------------------|---15----------------15---------------------
D|--------------15--13-12--v-------15--13-12---------15--13-12-13-------
A|----------13------------15*---------------15*------------------15*----
E|-13-13-13-------------------------------------------------------------





G|----------------------------15----------------15---------------------
D|--------------15--13-12---------15--13-12---------15--13-12-13-------
A|----------13------------15*---------------15*------------------15*---
E|-13-13-13------------------------------------------------------------





G|--------------------3------------3--------------
D|----------3--1-0-------3--1-0-------3--1-0-1----
A|-------1----------3------------3-------------3--
E|-1-1-1------------------------------------------





G|-------------------3-----------3-------------
D|---------3--1-0------3--1-0------3--1-0-1---
A|-------1---------3-----------3-------------3-
E|-1-1-1---------------------------------------

If you would like this tabbed for a five or six string, or would like the
Interlude parts on tab, E-mail me and we'll talk.
__
+|oo|+
+|oo|+ Questions? Comments? Insults?
||
||
||
|| Deman669@Hotmail.com
||
||
_ || _
_||_// Deman
| [] |
| || |
/ []
______/
Другие песни: