Misc SoundtrackScarface - Tonys Theme Текст

0 Голосов
Title: TONY'S THEME

Artist: Giorgio Moroder
Album: Scarface
Tab: Drew Wesley (drewwesley@yahoo.com)


Bar chords accurately accent the brooding progressions played on a synthesizer.
There are two progressions - the first is played twice.

Structure:
INTRO A 0:00
PROG 1 0:21
INTRO B 1:01
PROG 1 1:18
PROG 2 1:58
OUTRO 2:48

INTRO A
0:00
Cm
e -----------------3---3---3---3---
B -----------------4---4---4---4---
G -----------------5---5---5---5---
D -----------------5---5---5---5---
A -----------------3---3---3---3---
E ---------------------------------

Cm Cm
e -3---3---3---3---3---3---3---3---
B -4---4---4---4---4---4---4---4---
G -5---5---5---5---5---5---5---5---
D -5---5---5---5---5---5---5---5---
A -3---3---3---3---3---3---3---3---
E ---------------------------------

Cm Cm
e -3---3---3---3---3---3---3---3---
B -4---4---4---4---4---4---4---4---
G -5---5---5---5---5---5---5---5---
D -5---5---5---5---5---5---5---5---
A -3---3---3---3---3---3---3---3---
E ---------------------------------

PROG 1
0:21 (1:18)
Cm Gsus2 G
e -3---3---3---3---3---3---3---3---
B -4---4---4---4---3---3---3---3---
G -5---5---5---5---5---5---4---4---
D -5---5---5---5---3---3---5---5---
A -3---3---3---3---5---5---5---5---
E -----------------3---3---3---3---

Bbm C
e -1---1---1---1-------------------
B -2---2---2---2---5---5---5---5---
G -3---3---3---3---5---5---5---5---
D -3---3---3---3---5---5---5---5---
A -1---1---1---1---3---3---3---3---
E ---------------------------------

D# G#
e -----------------4---4---4---4---
B -8---8---8---8---4---4---4---4---
G -8---8---8---8---5---5---5---5---
D -8---8---8---8---6---6---6---6---
A -6---6---6---6---6---6---6---6---
E -----------------4---4---4---4---

F# Fm
e -2---2---2---2---1---1---1---1---
B -2---2---2---2---1---1---1---1---
G -3---3---3---3---1---1---1---1---
D -4---4---4---4---3---3---3---3---
A -4---4---4---4---3---3---3---3---
E -2---2---2---2---1---1---1---1---

Fsus2 C F
e -1---1-----------1---1---1---1---
B -1---1---5---5---1---1---1---1---
G -3---3---5---5---2---2---2---2---
D -1---1---5---5---3---3---3---3---
A -3---3---3---3---3---3---3---3---
E -1---1-----------1---1---1---1---

1st Time - Go to INTRO B (1:01)
2nd Time - Go to PROG 1 (1:58)

INTRO B
1:01
Cm Cm
e -3---3---3---3---3---3---3---3---
B -4---4---4---4---4---4---4---4---
G -5---5---5---5---5---5---5---5---
D -5---5---5---5---5---5---5---5---
A -3---3---3---3---3---3---3---3---
E ---------------------------------

Cm Cm
e -3---3---3---3---3---3---3---3---
B -4---4---4---4---4---4---4---4---
G -5---5---5---5---5---5---5---5---
D -5---5---5---5---5---5---5---5---
A -3---3---3---3---3---3---3---3---
E ---------------------------------

Return to PROG 1 (1:18)

PROG 2
1:58
F Bb
e -1---1---1---1-------------------
B -1---1---1---1---3---3---3---3---
G -2---2---2---2---3---3---3---3---
D -3---3---3---3---3---3---3---3---
A -3---3---3---3---1---1---1---1---
E -1---1---1---1-------------------

G C
e -3---3---3---3-------------------
B -3---3---3---3---5---5---5---5---
G -4---4---4---4---5---5---5---5---
D -5---5---5---5---5---5---5---5---
A -5---5---5---5---3---3---3---3---
E -3---3---3---3-------------------

A Dm Bb F
e -5---5---5---5---5---5---6-------
B -5---5---5---5---6---6---6---10--
G -6---6---6---6---7---7---7---10--
D -7---7---7---7---7---7---8---10--
A -7---7---7---7---5---5---8---8---
E -5---5---5---5-----------6-------

E Am Em
e -----------------5---5---5---7---
B -9---9---9---9---5---5---5---8---
G -9---9---9---9---5---5---5---9---
D -9---9---9---9---7---7---7---9---
A -7---7---7---7---7---7---7---7---
E -----------------5---5---5-------

D D D7
e ---------------------------------
B -7---7---7---7---7---7---7---8---
G -7---7---7---7---7---7---7---5---
D -7---7---7---7---7---7---7---7---
A -5---5---5---5---5---5---5---5---
E ---------------------------------

Gsus2 G
e -3---3---3---3---3---3---3---3---
B -3---3---3---3---3---3---3---3---
G -5---5---5---5---4---4---4---4---
D -3---3---3---3---5---5---5---5---
A -5---5---5---5---5---5---5---5---
E -3---3---3---3---3---3---3---3---

OUTRO
2:48
C C
e ---------------------------------
B -5---5---5---5---5---5---5---5---
G -5---5---5---5---5---5---5---5---
D -5---5---5---5---5---5---5---5---
A -3---3---3---3---3---3---3---3---
E ---------------------------------

C C
e ---------------------------------
B -5---5---5---5---5---5---5---5---
G -5---5---5---5---5---5---5---5---
D -5---5---5---5---5---5---5---5---
A -3---3---3---3---3---3---3---3---
E ---------------------------------

C (fade out)
e ---------------
B -5---5---5---5-
G -5---5---5---5-
D -5---5---5---5-
A -3---3---3---3-
E ---------------
Другие песни: