Misc SoundtrackDeath March Theme Текст

0 Голосов
Themes - Death March

Tabbed By: demon
EMail: unknown_4514@yahoo.com


People seem to get this one wrong too
But here is a much better sounding tab
to this song. Well at least the starting.

6 -4-4-4-0---4--0---4----------------4-0---4--
5 ---------3------3-------------3-0------3----
4 ----------------------1-1-1-2---------------
3 --------------------------------------------
2 --------------------------------------------
1 --------------------------------------------
===========Themes - Death March
Tabbed By: Tom
EMail: tommydred@yahoo.com


the other guys is kinda right but this really is the best way to go!

Tuning (D A D G B E)

D|----5--5-5-5-/8--7--7--5--5--3--5--
A|----5--5-5-5-/8--7--7--5--5--3--5--
D|----5--5-5-5-/8--7--7--5--5--3--5--

This is a great song with distortion and Drop D! Peace out and keep on rockin'!

email me : tommydred@yahoo.com for anything else
===========
Title: Death March
Artist: ???

e----------------------------------------------------------------------------
B----------------------------------------------------------------------------
G----------------------------------------------------------------------------
D--/8-8-7-8-------11--10-10-8-8-7-8------------------------------------------
A--/8-8-7-8-------11--10-10-8-8-7-8------------------------------------------
E----------------------------------------------------------------------------


Kick in some heavy distortion and it sounds even better......
E-mail me with comments

ddp92081ken_@hotmail.com
Другие песни: