Misc IrishDanny Boy Текст

0 Голосов
#----------------------------------PLEASE NOTE--------------------------------#
#This file is the author's own work and represents their interpretation of the#
#song. You may only use this file for private study, scholarship, or research.#
#-----------------------------------------------------------------------------#

Date: Wed, 11 Mar 1998 09:36:37 +1000
From: Кеvin Woodgate
Subject: m/misc_irish/danny_boy.tab

DANNY BOY Traditional words by Fred E Weatherly

Transcribed by К Woodgate
Easy melody Version


G7 C F6
E------------|------------------------------|-------------------------------|
B------------|------------------------------|-------------------------------|
G------------|-----------------2--0---------|-------------------------------|
D---------0--|-2-----0--2----------------2--|-0------------------2----3-----|
A-2---3------|------------------------------|----3--0-------3---------------|
E------------|------------------------------|-------------------------------|
Oh, Dan-ny Boy, the pipes, the pipes are call - ing ____from glen to

C Am D7 G7
E-------------------------------------|-------------------------------------|
B-------------------------------------|-------------------------------------|
G-0-------2----0----------------------|-------------------------------------|
D--------------------2---------2------|-0-----------------------------------|
A-------------------------3-----------|---------------2------3----0---------|
E-------------------------------------|-------------------------------------|
Glen and down the moun-tain side ________ The sum - mer's

C C7 F6 G9
E-------------------------------------|-------------------------------------|
B-------------------------------------|-------------------------------------|
G------------------2----0-------------|-------------------------------------|
D-2--------0---2------------2---------|-0-----------------------------0-----|
A-------------------------------------|------3--0----------2----3-----------|
E-------------------------------------|-------------------------------------|
Gone, and all the ros-es fall - ing, ______ it's you, it's

C G7 C G7 C F G7
E--------------------------|---------------------|--------------------------|
B--------------------------|-----------------0---|-1----0----0--------------|
G--------------------------|---------0---2-------|---------------2----0--2--|
D-2----3----2---0------0---|---------------------|--------------------------|
A-------------------3------|-3-------------------|--------------------------|
E--------------------------|---------------------|--------------------------|
You must go, and I must bide,___But come you back when sum-mer's in
the

C G7 C F C
E--------------------------|------------------------------------------------|
B-----------------------0--|----1-----0-------0-----------------------------|
G-0-------------0--2-------|-------------------------2---0------------------|
D----2---------------------|------------------------------------2-----------|
A-------3------------------|------------------------------------------------|
E--------------------------|------------------------------------------------|
Mea - dow, ___Or when the val - ley's hushed and white with

D7 G7 C C7 F6
E-------------------------------------|-0-----------------------------------|
B-------------------------------------|--------3----3-----1---------1-------|
G-------------0-------0--------0------|-------------------------2-----------|
D-0-----------------------------------|-------------------------------------|
A-------------------------------------|-------------------------------------|
E-------------------------------------|-------------------------------------|
Snow _______ It's I'll be here in sun - shine or in

C Am7 F G7 C Am7 G7
E-------------------------------------|-------------------------------------|
B-------------------------------------|-------------------------------------|
G-0-----------------------------------|--------2--0-------------------------|
D----2------------------------0-------|-2-------------2--0------------------|
A-------3-----------2-----3-----------|-----------------------3---0------2--|
E-------------------------------------|-------------------------------------|
Sha - dow. ____ Oh, Dan-ny Boy, oh Dan-ny Boy, I Love you

C F G7 C D7 G7
E----------------------|-------0-----------------|--------------------------|
B----------------------|----------3--3--1--0-----|--------------------------|
G-----------0----------|----0-----------------2--|-0------------------------|
D------------------0---|-2-----------------------|----2-0---0------------0--|
A-3------------3-------|-------------------------|--------3---2----3--------|
E----------------------|-------------------------|--------------------------|
So!______ But when you


C F
E-------------------------------------|-------------------------------------|
B-------------------------------------|-------------------------------------|
G--------------------2----0-----------|-------------------------------------|
D-2---------0---2------------------2--|--0-------------------2----3---------|
A-------------------------------------|------3--0-------3-------------------|
E-------------------------------------|-------------------------------------|
Come, and all the flow'rs are dy - ing,__ if I am

C Am D7 G7
E-------------------------------------|-------------------------------------|
B-------------------------------------|-------------------------------------|
G-0---------2---0---------------------|-------------------------------------|
D---------------------2---------2-----|-0----------------------------0------|
A------------------------3------------|--------------2--------3-------------|
E-------------------------------------|-------------------------------------|
Dead, as dead I well may be,_________ You'll come and

C C7 F G9
E-------------------------------------|-------------------------------------|
B-------------------------------------|-------------------------------------|
G-----------------------2------0------|-------------------------------------|
D-2---------0----2----------------2---|-0---------------------------0-------|
A-------------------------------------|---3-0-----------2----3--------------|
E-------------------------------------|-------------------------------------|
Find the place where I am ly - ing, ____ and kneel and

C G7 C G7 C F G7
E--------------------------|-----------------|------------------------------|
B--------------------------|------------0----|-1-----0------0---------------|
G--------------------------|------0---2------|------------------2----0-----2|
D-2----3--2---0---------0--|-----------------|------------------------------|
A----------------3---------|-3---------------|------------------------------|
E--------------------------|-----------------|------------------------------|
Say an A - ve there for me;__And I shall hear, though soft you tread
a-

C F G7 C F C
E-------------------------------------|-------------------------------------|
B-------------------------------0-----|--1------0----0----------------------|
G-0------------------0----2-----------|-------------------2-----0-----------|
D-----2-------------------------------|-----------------------------2-------|
A---------3---------------------------|-------------------------------------|
E-------------------------------------|-------------------------------------|
Bove_ me,_____ and all my grave will war-mer, sweet-er

D7 G7 C C7 F6
E-------------------------------------|-0-----------------------------------|
B-------------------------------------|-----------3----3------1----------1--|
G-----------0------0------0-----------|----------------------------2--------|
D-0-----------------------------------|-------------------------------------|
A-------------------------------------|-------------------------------------|
E-------------------------------------|-------------------------------------|
Be, _____ For you will bend and tell me that
you

C Am C Am Dm7 G7 C
E---------------------------|------------------------------------|----------|
B---------------------------|------------------------------------|----------|
G-0-------------------------|-------2--0-------------------------|----------|
D-----2---------------0-----|-2-------------2---0----------------|----------|
A--------3------2---3-------|------------------------3--0-----2--|-3--------|
E---------------------------|------------------------------------|----------|
Love- me,___ and I shall sleep in peace un-til you come to me.___
Другие песни: