Misc ChristmasGood King Wenceslas Текст

0 Голосов
-----------------------------------------------------------------------------

good king wenceslass by??
-----------------------------------------------------------------------------
tabbed by: max phillips
email:y.mccoll@btopenworld.com

tuning:regular

e|-0-0-0-2-0-0------------0-0------
B|-------------0--2-0-2-4----------
G|--------------------------------- X2
D|---------------------------------
A|---------------------------------
E|---------------------------------

e|-7-5-4-2-4-2-0---------0-0-------------0-0-2-7-5-4-2-0-5-0-----------------
B|---------------2-0-2-4---------2-0-2-4-------------------------------------
G|---------------------------------------------------------------------------
D|---------------------------------------------------------------------------
A|---------------------------------------------------------------------------
E|---------------------------------------------------------------------------
Другие песни: