MineralFive, Eight and Ten Текст

0 Голосов
Intro и куплеты: 

Riff 1:
D5 Dsus2 G
E|----------------------------------|----------------------------------|
B|----------------------------------|----------------------------------|
G|--7-----7-----7---6-----6-----6---|--0-----0-----0---0-----0-----0---|
D|----7-----7-----7---7-----7-----7-|----0-----0-----0---0-----0-----0-|
A|------5-----5---------5-----5-----|------5-----5---------5-----5-----|
E|----------------------------------|----------------------------------|

Куплет:

Riff 1:
D Dsus2 G
E|----------------------------------|----------------------------------|
B|----------------------------------|----------------------------------|
G|--7-----7-----7---6-----6-----6---|--0-----0-----0---0-----0-----0---|
D|----7-----7-----7---7-----7-----7-|----0-----0-----0---0-----0-----0-|
A|------5-----5---------5-----5-----|------5-----5---------5-----5-----|
E|----------------------------------|----------------------------------|

The humble and righteous and meek
Are teaching me who's will to seek
But who really knows how to speak
About these things
Questions of where can he go
When he is feeling so low
And kicking himself just to show
How he still bleeds

Припев: (боем)
D A Bm G
And I want to know
D A Bm G
the difference between
D A Bm G
What sparkles
D A Bm G
and what is gold

Куплет:
Riff 1:
D Dsus2 G
E|----------------------------------|----------------------------------|
B|----------------------------------|----------------------------------|
G|--7-----7-----7---6-----6-----6---|--0-----0-----0---0-----0-----0---|
D|----7-----7-----7---7-----7-----7-|----0-----0-----0---0-----0-----0-|
A|------5-----5---------5-----5-----|------5-----5---------5-----5-----|
E|----------------------------------|----------------------------------|

I wonder how many eyes
Are fixed like a vulture's on me
Now I wonder if I can even move or breathe
Without disappointing someone
And I know what they call themselves
But I don't remember inviting them
To put me on this pedastal
And make me feel so naked
Afraid to look down
Afraid to turn around
I bring it on myself
I know I bring it on myself

Припев: (боем)
D A Bm G
And I want to know
D A Bm G
the difference between
D A Bm G
What sparkles
D A Bm G
and what is gold

Куплет:
Riff 1:
D Dsus2 G
E|----------------------------------|----------------------------------|
B|----------------------------------|----------------------------------|
G|--7-----7-----7---6-----6-----6---|--0-----0-----0---0-----0-----0---|
D|----7-----7-----7---7-----7-----7-|----0-----0-----0---0-----0-----0-|
A|------5-----5---------5-----5-----|------5-----5---------5-----5-----|
E|----------------------------------|----------------------------------|

I walked along beside the purple mountains
beneath the orange sky
Imagined what it all might look like
with these planks out of my eyes
I wondered if the big white horse was
coming down tonight
I wanted to taste that victory
but my mouth was dry
There is only tonight and the light
that bleeds from your heart
Makes me want to try and start again
Другие песни: