MillencolinSoft World Текст

0 Голосов
Song: Softworld 

Band: Millencolin
Album: Life on a plate
Tabbed by: Martijn de Wilde (martinjthewild@yahoo.com)

Intro
G--5-0-----
D------3---
A----------
E----------

G----5-----7-----10----5---
D--------------------------
A--3-----5-----8-----3----- 5x
E--------------------------

Chorus
G-------------------------
D-------------------------
A--3>--5>--8>--88888753--- 4x
E-------------------------

Verse
G-------------------------
D-------------------------
A--33----55----88----33--- 4x
E-------------------------

Bridge
G---------------------------------------
D---------------------------------------
A--8755r---553r---8755r---8755r-----8---
E---------------------------------------

Outro (after last chorus)
G----------------------
D----------------------
A--3r---5r---8r---75---
E----------------------

Another cool song by the very best punk/ska band Millencolin!
Другие песни: