MillencolinNosepicker Текст, аккорды

0 Голосов
Song:NOSEPICKER
Band:MILLENCOLIN
Album:MELANCHOLY COLLECTION
tabbed by:ROBBIE SHEPHERD

INTRO

G:---------------------------------------------------------------
D:-----4---------------------------------------------------------
A:-2-2---2-------5-----------------------------------------------
E:-----------3-3---3---------------------------------------------

VERSE

G:---------------------------------------------------------------
D:---------------------------------------------------------------
A:-2222--------2222--------2222--5555----------------------------
E:-------3333--------3333--------------5555--3333----------------

CHORUS

G:---------------------------------------------------------------
D:---------------------------------------------------------------
A:-2222--------5555----------------------------------------------
E:-------3333-------5555-----------------------------------------

OUTRO

G:---------------------------------------------------------------
D:-----4--------7------------------------------------------------
A:-2-2---2--5-5---5------7--------5------------------------------
E:-------------------5-5---5--3-3---3----------------------------

ANY REQUESTS E-MAIL ME AT scr@caboolture.starway.net.au
Другие песни: