Midnight OilThe Real Thing Текст, аккорды

0 Голосов
Artist: The Midnight oils

Song: The Real Thing

Intro
E------0-------------5----0-----0------------------------------------|
B--4---------------7-----------------------0-0-----------------------|
G----4-----------7----------6-----6--------1-1-----------------------|
D-------------0------0--------7-----7----2---------------------------|
A--2-----2----------------0-----0------------------------------------|
E--------------------------------------------------------------------|

Chorus
E--------------------------------------------------------------------|
B--------------------------------------------------------------------|
G--------------------------------------------------------------------|
D--------4/5----4/5-5-5--5-5--5---7-7-7--7-7---9-9-9--9-9------------|
A--------4/5----4/5-5-5--5-5--5---7-7-7--7-7---9-9-9--9-9------------|
E--------2/3----2/3-3-3--3-3--3---5-5-5--5-5---7-7-7--7-7------------|


E--------------------------------------------------------------------|
B--------------------------------------------------------------------|
G--------------------------------------------------------------------|
D--------------------------------------------------------------------|
A--------------------------------------------------------------------|
E--------9-9-9-9----9-9--9-9-9----9-9--9-9-9----9-9--9-9-9-----------|

Well that?s all I coud figure out. Email me for any changes.
Death_master8@hotmail.com
Другие песни: