MetallicaWelcome Home Текст

0 Голосов
From the album "Master Of Puppets"


WELCOME HOME (SANITARIUM)

METALLICA

Tabbed By Maf

Intro 4/4 2/4 4/4
|-----------------|---------------------|-----------|----------------------|
|-------7---------|------------7-----75|(5)----57--|----------------------|
|-----PAUSE-------|---------------------|-----------|7---------------------|
|-----------------|---------------------|-----------|----------------------|
H
2/4 4/4 2/4
|-------------------------|-------------||-------------------|------------------|------------||
|---------------7------7/9|(9)-----57---||:------------------|------------------|-----------:||
|(7)----------------------|----7--------||----------3------3-|5------5----------|------------||
|-------------------------|-------------||-0------0----------|---------5------3-|(3)-3--°5---||
H °2 (2nd,4th
times)
4/4 2/4
||------------------|----------------|----------||
||------------------|----------------|----------||
||---------3-----23-|5-3-2-----------|----------||
||0------0----------|------3-5------3|(3)-3-2-2-||

1st, 2nd Verses
4/4 2/4
|----------------|----------------|-----------|-----------------|-----------------|-----------|
|----------------|----------------|-----------|-----------------|-----------------|-----------|
|--------3-----3-|5-----5---------|-----------|--------3------3-|5------5---------|-----------|
|0-----0---------|--------5---5-3-|(3)--3--5--|0-----0----------|---------5---5-3-|(3)-3-2-2--|

4/4 2/4 4/4 2/4
|----------------|----------------|-----------|-----------------|-----------------|-----------|
|----------------|----------------|-----------|-----------------|-----------------|-----------|
|--------3-----23|5-3-2-----------|-----------|--------3------23|-5-3-2-----------|-----------|
|0-----0---------|------3---5----3|(3)-3-2-2--|0-----0----------|-------3-5-5-5-3-|(3)-3-2-2--|

4/4 2/4 4/4 2/4
|----------------|----------------|--------|----------------|----------------|--------||
|----------------|----------------|--------|----------------|----------------|--------||
|----2-2-----3-3-|----5-5---------|--------|----2-2-----3-3-|----5-5---------|--------||
|0-0-----0-0-----|0-0-----5-5-5-3-|3-3-5-2-|0-0-----0-0-----|0-0-----5-5-5-3-|3-3-5-2-||

Chorus
4/4
|-------------------|----------------|-------------------|------------------|
|-------------------|-------020------|-------------------|------------------|
|-----------32--32|(2)-------32----|-----------32--32|(2)-22222232------|
|0---XX32XX---XX---|------------5323|0---XX32XX---XX---|-------------3-X-1|
HP
Second time to Coda
|-------------------|----------------|-------------------|------------------||
|-------------------|-------020------|-------------------|------------------||
|-----------32--32|(2)-------32----|-----------32--3--|2-----------------||
|0---XX32XX---XX---|------------5323|0---XX32XX---XX---|------------------||
HP
2/4 3 times
||-----------------|----------------|-------------||
||:----------------|----------------|------------:||
||---------3-----3-|5-----5---------|-------------||
||-0-----0---------|--------5-----3-|(3)--3--°5---||
°2 (2nd time)

4/4 2/2 D.S. al Coda
|------------------|-----------------|----------||
|------------------|-----------------|----------||
|---------3------3-|5------5---------|----------||
|0------0----------|---------5-5-5-5-|(3)-3-2-2-||

Coda
2/4 4/4 2/4
|----------------|------------------|-------------|----------------|
|-------020------|------------------|-------------|-------020------|
|----------32----|-----------32--3-|2------------|----------32----|
|------------5323|0---XX32XX---XX--|-------------|------------5323|
HP HP

Double time
4/4
|-------------|-------------|-------------|-------------|----------------|----------------|
|-------------|-------------|-------------|-------------|----------------|----------------|
|-------------|-------------|-------------|-------------|----------------|----------------|
|0------------|(0)----------|(0)----------|(0)----------|0-0-0-0-0-0-0-0-|0-0-0-0-0-0-0-0-|

|-------------|-------------|----------------|----------------|----------------|----------------|
|----%--------|------%------|----------------|----------------|----------------|----------------|
|-------------|-------------|----------------|----------------|----------------|----------------|
|-------------|-------------|5-7---5-7-0-0-0-|0-0-0-0-0-0-0-0-|5-6---5-6---5-6-|--5-7-0-0-0-0-0-|
H H H H H H

X3
||-----------------|----------------|----------------|-----------------||
||:----------------|----------------|----------------|----------------:||
||-----------------|----------------|----------------|-----------------||
||-5-6---5-6-0-0-0-|0-0-0-0-0-0-0-0-|5-6---5-6---5-6-|--5-7-0-0-0-0-0--||
H H H H H H

|------------|-----------|------------|--------------|
|------------|-----------|------------|--------------|
|02----------|02-55------|02----------|02-33-32-22---|
|---00-------|-----------|---11-------|--------------|

|------------|-----------|------------|--------------|-----------------|
|------------|-----------|------------|--------------|-----------------|
|02----------|02-55------|02----------|02-33-32-22---|-----------------|
|---00-------|-----------|---11-------|--------------|000000000000(12)|

Double time
Guitar Solo
||---------------------------------------------------------------------||
||:-------------------------------------------------------------------:||
||---------------------------------------------------------------------||
||-5-6---5-6-0-0-0-|0-0-0-0-0-0-0-0-|5-6---5-6---5-6-|--5-7-0-0-0-0-0--||

Nornal time X6
|------------|------------||------------|-----------|-----------|---------------||
|------------|------------||:-----------|-----------|-----------|--------------:||
|02----------|02-55---5---||-02---------|02-55------|02---------|02-33---32-22--||
|---00-------|------------||----00------|-----------|---11------|---------------||

|-----------|-----------|-----------|--------------|
|-----------|-----------|-----------|--------------|
|02---------|02-55------|02---------|02-33---32-22-|
|---00------|-----------|---11------|--------------|

|----------------|----------------|----------------|----------------|------------------|
|----------------|----------------|----------------|----------------|------------------|
|02--------------|02-55---5-5-5-5-|02--------------|02-33---2-2-2-2-|2-2-2-2--2-2-2-2--|
|---00---0-0-0-0-|----------------|---11---1-1-1-1-|----------------|------------------|

|----------------|----------------|----------------|----------------||
|----------------|----------------|----------------|----------------||
|2---0-----------|----------------|----------------|----------------||
|--------3---2---|0---------------|(0)-------------|7--------------||
/ /
/ /
/ /

Ok here`s Sanitarium, must be very right but for timing it`s better to refer to the CD.
Anyway if you got questions, problems or Dream Theater Btabs please e-mail me!

Metal up your ass!!

Maf
Другие песни: