MetallicaThe Unforgiven (Solo) Текст, аккорды

0 Голосов
Intro:
1----------------------------------------------------------------
2----------------------------------------------------------------
3--2-4-5-5-4-2-2--2-4-5-5-2--------2-4-5-5-5-5-4---4-0---0-2-4-2-
4-------------------------------------5-5-2----------------------
5----------------------------------------------------------------
6----------------------------------------------------------------

1--------------------------------
2--------5-5-5-3-----------------
3--2-4-5---------4--4-1--1-2-4-2-
4-------5-2----------------------
5--------------------------------
6--------------------------------

Solo:
1-----------------0-0-0-0-0-0-------------
2----0-1-3-1h3h1-0---0--------1-3-5-3-1-5-
3--2---------------2---0-2----------------
4-----------------------------------------
5--0------------------------0-------------
6-----------------------------------------

1--------------------------------------------------
2----8h10--8-7-------------------------------------
3----7h9---7-7--9-7-5---7-5----------------------5-
4---------7-----5------------------5---5-7---------
5--0-----------------------------------3-5-6-7-----
6----------------------3-5-------------------------

1-------------7---7----10------12-------14-------15----17---------
2----8-7-8-7---7-8-10------8--8-8----8-10----10-12----12-13----13-
3-9---------------------------------------------------------------
4-----------------------------------------------------------------
5---0-------------------------------------------------------------
6-----------------------------------------------------------------
Другие песни: