MetallicaLittle Boy Youre Going To Hell Текст

0 Голосов
Metallica

(Hey Little Boy) You're Going To Hell

hey this is my first tab, who cares if it sucks, no one else has done it yet, so here it is, right off of
south park movie, bigger, longer and un cut

Main Riff(played really fast)
1-----------------------------------------------------------|x4then fill
2-----------------------------------------------------------|
3----------5----------5----------5--------------------------|
4--5-5-5-5-5--5-5-5-5-5--5-5-5-5-5--------------------------|
5--5-5-5-5-3--5-5-5-5-3--5-5-5-5-3--------------------------|
6--3-3-3-3----3-3-3-3----3-3-3-3----12-12-9-9-7-7-5-5-3-3---|

fill
1----------------|
2----------------|
3----------------|
4-5-5-5--7-7-7---|
5-5-5-5--7-7-7---|
6-3-3----5-5-----|

then
main riffx3
fill
main riffx1
fill
main riffx1
fill
main riffx1
then
1----------------------------------------------|
2----------------------------------------------|
3-------5----------5----------5--------5-------|
4-5-x-x-5--5-5-5-5-5--5-5-5-5-5--7-x-x-5-------|
5-5-x-x-3--5-5-5-5-3--5-5-5-5-3--7-x-x-3-------|
6-3-x-x----3-3-3-3----3-3-3-3----5-x-x---------|
I------------------------------------|I
^
fill then this part here again
then fill again then

1---3--|
2---3--|
3---4--|
4---5--|
5---5--|
6---3--| done

if have any questions or comments then too bad
Другие песни: