MetallicaCarpe Diem Baby Текст

0 Голосов
tune all guitars down 1/2 step


1)
Db--5-5-----5-5-----5-5-----5-5
Ab--7-7-----7-7-----7-7-----7-7
Eb------0-0-----0-0-----0-0----
pm.. ... ...

intro fade in

2)
eb-------------------------------------------------
Bb------/12-------------------/12------------------
Gb------/12-------------------/12------------------
Db-------------------------------------------------
Ab-------------5---5---5------------5---5---5------
Eb--0-0------7---5---3----0-0-----7---5---3---5-3-0

3)
Db--7/9-----7/9/109-----7--5-5-4
Ab--5/7-----5/7/8-7-----5--3-3-2
Eb------0-0----------0-0---------
pm.. ...

verse

"Hit dirt, shoot trees."

4)
Gb------4-----3--------------------- ---------
Db----4-----3-------5-----4--2-2-2-2 twice -7--5-5-4
Ab--2-----1-------5-----4----2-2-2-2 then -5--3-3-2
Eb--------------3-----2------0-0-0-0 ---------
pm......

bridge

"They make me miss you"

5)
Db-------------- ------------- -----------------5
Ab--2--4--5--7-2 1) -2--4--5--7-2 1) -2--4--5--7--7-7-3
Eb--0--2--3--5-0 -0--2--3--5-0 -0--2--3--5--5-5--

chorus

"So wash your face away with dirt."

6) ^ ^
Gb------12----13----12----13
Db------12----13----12----13
Ab--------------------------
Eb--0-0---0-0---0-0---0-0---
pm

pre solo

7a)
Db--------9----------9-----------7---5----
Ab--------7----------7-----------5-7-3-5-4
EB--0-0-0---0-0--0-0---0-0--0-0----5---3-2
pm.... ........ ........


7b)
Db----------5----------5----------5-4--5-4-2
Ab--2-2-2-2-3-2-2--2-2-3-2-2--2-2-3-2--3-2-0
Eb------------------------------------------
pm.......................................


7c)
Db------9-----11----12-----14
Ab------7-----9-----10-----12
Eb--0-0---0-0---0-0----0-0---

solo backing
Другие песни: