MetallicaBreadfan (btab) Текст

0 Голосов
Intro: This riff is played after the guitar plays it 4x


G-------------------------------------------|
D--02202202202222222022022022222------------|
A--------------------------------020--------|
E------------------------------------^3-0---|

Verse: There are a few slight variations of this riff
But this will sound fine.

G----------------------------------------|
D----------------------------------------|
A---7-7---7---7-7---7-----75-5-5-567----|
E-------0---0-----0----00----------------|

Guitar Solo Backing: These notes are strongly accented

G----------------------------------------------|
D----------------------------------------------|
A----------------------------------------------|
E-3-23---345---35-355555-23333-233333-355555---|

Post solo Riff:

G-------------------------------------------------------|
D-------5--------3--------------------------------------|
A--57-7----35-5-----5-----------------------------------|
E------------------------57-------2223/5----------------|

Note: after playing that 4x play:

E-5-3-5-3-53-0---------------------------------------------|

After this is slow interlude that I can`t figure out because
the bass isn`t audible. Just mess around in the key of Emi.
Другие песни: