MetallicaAnd Justice For All (btab) Текст

0 Голосов
Bass Riff1

------------------|
------------------|
|--2-2-2-2-2-2-1-1-1-1-1-0-1--|
------------------|

Bass Riff2
-------------------------------------4-------------3----|
------------7--------------------4---------------3------|
|--7-7-7--7-5h7-5-5-5-5---5-3-3-3--3-3h5-2-2---2---2-1-1-3-1-----1--|
--------------------------------------------------------|

Bass Riff3
-----------------------------------------------------|
------------------------------------------------3-2--|
----------------------------------------------0------|
|---6----6-5----6-5-4----6-5-4-3----6-5-3-1-5-3-1-0-3-1-0--------|

Bass Riff3 (cont.)
----------------------|
----------------------|
|--3--2--0-----2-0-----0----------|
3------3-2---3-2-1-0--|

Bass Riff4
----------------------------------------------------|
----------------------------------------------------|
------------5h7--7-5------------------5h7--7-5------|
|--6--6--5---6--6--5--0------------7---6--6--5--0------------7--|

Bass Riff5
--------------------------------------------------------------|
--------------------------------------------------------------|
--------------7------7-----------------------0----------0-----|
|--6--6--5---6--6--5---0------0------0--0---2--3--0---0------3--5------0--|

Bass Riff5 (cont.)
-----------------------------------------------------------|
-----------------------------------------------------------|
|------0-0-----0-0-----7------7-----------------------0----------0-----|
|--0-3-----0-3------0------0------0--0---2--3--0---0------3--5------0--|

Bass Riff5 (cont.)
----------|
----------|
|--------0---8--8--7--|
|--0--3---------------|

Bass Riff6
-----------------------------------------------------|
-----------------------------------------------------|
|----5h7--7-5------------------5h7--7-5--------------------------|
|--0------------7---6--6--5--0------------7---6--6--5---6--6--5--|

Bass Riff6 (cont.)
-----------------------------------------------------|
-----------------------------------------------------|
|----5h7--7-5------------------5h7--7-5--------------------------|
|--0------------7---6--6--5--0------------7---6--6--5---3--3--2--|

Bass Riff7
------------------------------------------------|
------------------------------------------------|
|----7----7--7---------------7----7--7----------------------|
|--0----0----0---0--0--1---0----0----0---6--6--5---6--6--5--|

Bass Riff8
---------------|
---------------|
|-----7--7--------5--5-----|
|--0--------0--0--------3--|

Bass Riff9
------------------------|
------------------------|
------------------------|
|--2---2-2-2-2-2-2-3-2-0-2h3---2h3--|

Bass Riff10
--------|
--------|
--------|
|--2---2-2-2-2-2-2--|

Bass Riff11
-------------------|
|--5---------------------------|
|----------3--3-----------5h7--|
----------5h7------|

Bass Riff12
-----------------------------------------------------|
-----------------------------------------------------|
|--7-------------------------------------------------------------|
|--0---0-0-0-0-0-0--1-0-0-0h1---0h1---5---5-5-3-5-7---7-7-5-7-8--|

Bass Riff12 (cont.)
----------------------------------------------------------|
----------------------------------------------------------|
-----------------------------------------------------7-8--|
|--7-5-3-1--0---0-0-0-0-0-0--1-0-0-0h1---0h1---5--5-5-3-5-7--10-------|

Bass Riff12 (cont.)
-----------------------------------------------------|
-----------------------------------------------------|
|--7-------------------------------------------------------------|
|--0---0-0-0-0-0-0--1-0-0-0h1---0h1---5---5-5-3-5-7---7-7-8-7-5--|

Bass Riff12 (cont.)
--------------------------------------------|
--------------------------------------------|
|----------5--3--3-3-2----------------------------------|
|--3-3-5-3-------------3-2-1----1----6--6--5---6--6--5--|

Bass Riff13
-----------------------------------------------------|
-----------------------------------------------------|
|----5h7--7-5------------------5h7--7-5--------------------------|
|--0------------7---6--6--5--0------------7---6--6--5---6--6--5--|

Bass Riff13 (cont.)
---------------------------------|
---------------------------------|
|----5h7--7-5------------------5h7--7-5------|
|--0------------7---6--6--5--0------------7--|

Bass Riff14
-------------------------|
-------------------------|
-------------------------|
|--0---0-0-0-0-0-0--1-0-0-0h1---0h1--|

Bass Riff15
----------|
----------|
|--3--3--2---3--3--2--|
----------|

Bass Riff16
-----------|
-----------|
-----------|
|--0-2--0-2--2--0-2-3--|

Bass Riff17
------------------------------------------|
------------------------------------------|
|-----5--5--------3--3--------4--4--------2--2--------|
|--0--------3--0--------1--0--------2--0--------0--0--|

Bass Riff18
--------------------------------------------------|
-----------------------------------------------4--|
-------------------------------------4------------|
|--5--5--3---5--5--3---3--3--2---3--3--2---2--2------2--2-----|

Bass Riff18 (cont.)
---------|
|--------3-----------|
---3-----|
|--1--1-----1-----1--|

Bass Riff19
-----------------------------------------4-------------3----|
---9-----------7---------------5-----4---------------3------|
|--7-----9-7-7---5-----7-5---5-3-----5-3-3---2-2---2---2-1-1-3-1-----1--|
|----0-0-----------0-0-----------0-0------------------------------------|

Bass Riff19 (cont.)
-3-----------------------------------------------------------|
|------3---3-------------------------------------------------------------|
|--1-1---1-----1---7------7---5------5---3------3---2------2---1------1--|
-------0--x-x-0------x-x--------x-x--------x-x--------x-x----|

Bass Riff19 (cont.)
---------------|
---------------|
|--1------1---1------1-----|
|-----x-x--------x-x----0--|

Bass Riff20
----------|
----------|
----------|
|--6--6--5---3--3--2--|

Bass Riff21
------------------------------------------|
------------------------------------------|
|-----7------7-----------------------0----------0-----|
|--0------0------0--0---2--3--0---0------3--5------0--|

Bass Riff21 (cont.)
-----------------------------------------------------------|
-----------------------------------------------------------|
|------0-0-----0-0-----7------7-----------------------0----------0-----|
|--0-3-----0-3------0------0------0--0---2--3--0---0------3--5------0--|

Bass Riff21 (cont.)
----------|
----------|
|--------0---8--8--7--|
|--0--3---------------|

Bass Riff22
---------------------------------------------------------------|
---------------------------------------------------------------|
|-----7------7--7----------------------------------------------------5--3--|
|--0------0-----0---0--2--3--0---5---5-5-3-5-7---7-7-8-7-5-3---3-5-3-------|

Bass Riff22 (cont.)
---------------------------------|
---------------------------------|
|--3--3--2-----------------------------------|
-3--2--1------6--6--5---6--6--5--|

Bass Riff23
-----9------------------------------|
|--9-------9----------------------------12------|
|--7----------7-----7--12-------12--------------|
-----------10-----------10------10--|

Bass Riff24
----------------------------|
-----9-----7----------------|
|--9-------9-----------0----------------|
|--7----------7-----7----------3--3--2--|

Bass Riff25
-------------------------------------------|
--------7----------------------------------|
|--9----------------0----------------------------------|
|--7-------6--6--5----------3--3--2-----------3--3--0--|

How it goes:
Bass Riff1 x 2
Bass Riff2 x 2
Bass Riff3 x 1
Let last note ring during drum bit
Bass Riff4 x 4
Bass Riff5 x 1
Bass Riff6 x 1
Bass Riff7 x 6
Bass Riff8 x 1
Bass Riff9 x 3
Bass Riff10 x 1
Pause for quick guitar bit
Bass Riff9 x 3
Bass Riff10 x 1 (No pause after here)
Bass Riff11 x 1
Bass Riff12 x 1
Bass Riff6 x 1
Bass Riff7 x 6
Bass Riff8 x 1
Bass Riff9 x 3
Bass Riff10 x 1
Pause for quick guitar bit
Bass Riff9 x 3
Bass Riff 10 x 1 (No pause after here)
Bass Riff11 x 1
Bass Riff12 x 1
Bass Riff13 x 1
Bass Riff3 x 1
Bass Riff14 x 3
Pause for quick guitar bit
Bass Riff14 x 3
Pause for quick guitar bit
Bass Riff15 x 1
Bass Riff16 x 3
Bass Riff15 x 1
Bass Riff16 x 3
Bass Riff15 x 1
Bass Riff8 x 2
Bass Riff17 x 1
Bass Riff7 x 4
Bass Riff18 x 1
Bass Riff2 x 4
Bass Riff19 x 1
Let last note ring during drum bit
Bass Riff4 x 2
Bass Riff20 x 1
Bass Riff7 x 4
Bass Riff8 x 2
Bass Riff9 x 3
Bass Riff10 x 1
Pause for quick guitar bit
Bass Riff9 x 3
Bass Riff10 x 1 (No pause after here)
Bass Riff11 x 1
Bass Riff12 x 1
Bass Riff21 x 1
Bass Riff22 x 1
Bass Riff21 x 1
Bass Riff23 x 1
Bass Riff24 x 1
Bass Riff23 x 1
Bass Riff25 x 1
Другие песни: