MestRooftops Текст

0 Голосов
hi again. ok this song was very frustrating to tab out. but it was worth it

because this song is one of the best on the new album. im 99.9% sure this is
correct. Email me if you have questions or comments or just want to thank me :)
lol jk...iBLINKEDndMESTup@aol.com

PM = palm mute



intro

E--7-7-5-4------0-2-----0----------
B-------------4-----2-4------------
G----------------------------------
D----------------------------------
A----------------------------------
E---------------------------------- 2x

Verse 1

E------------------------------------------------
B------------------------------------------------
G--9---9---9----------------------9--------------
D--9---9---9---9------------------9--7--9--------
A--7---7---7---9------------------7--7--9--------
E--------------7---------------------5--7--------
PM PM ‘’Do it all again if I could’’
1st time you hit chord don’t PM

Pre-Chorus

E----------------------------------
B----------------------------------
G----------------------------------
D--4--6-----7--9-------------------
A--4--6-----7--9-------------------
E--2--4-----5--7-------------------

Chorus

E------------------|---------------
B------------------|---------------
G--9-9-------------|--9------------
D--9-9-7-7--6-7-9--|--9-9-7--------
A--7-7-7-7--6-7-9--|--7-9-7--------
E------5-5--4-5-7--|----7-5--------
“we just didn’t care” 2nd time around

Verse 2

Only Play this the first time E---------------------------------
B---------------------------------
G--9------------------------------
D--9---7----9---------------------
A--7---7----9---------------------
E-------5----7--------------------
“remembering if this was all we had”
2nd time play like regular

Pre-Chorus
Chorus


Bridge 3x

E----------|--------------------------------------------------------
B----------|--------------------------------------------------------
G--9-------|------9---9--------8---8--------9---9-----------9---9---
D--9-9-7-9-|----9---9---9-------------------------------------------
A--7-9-7-9-|--7--------------9---9---9----7---7---7--7----7---7---7-
E----7-5-7-|---------------7------------5---------------5-----------

E----------------------------------
B----------------------------------
G--9--11---------------------------
D--9--11---7---7-------------------
A--7--9----7---7-------------------
E----------5---5-------------------
PM PM PM

Chrous……
then play:

E----------------------------------
B----------------------------------
G--9--------------6--4-------------
D--9--9--7--------6--4--7----------
A--7--9--7--------4--2--7----------
E-----7--5--------------5----------
“we just didn’t care”

Repeat intro for ending

thats it. real easy. peace out kids
Другие песни: