MelvinsRevolve Текст

0 Голосов
Tuning DADGBe

Intro:
[E -----------------------------------------------------------
B -----------------------------------------------------------
G --5h7-xx-7-7-7-5h7-xx-5h7-xx-5h7-xx-5h7--------------------
D --5h7-xx-7-7-7-5h7-xx-5h7-xx-5h7-xx-5h7--------------------
A --5---xx-5-5-5-5---xx-5---xx-5---xx-5----------------------
D -----------------------------------------------------------

VERSE:
E -----------------------------------------------------------
B -----------------------------------------------------------
G -----------------------------------------------------------
D -----------------------------------------------------------
A -0--0-0--0--0-0---0-0--2-3--3-3-3--3-3-3p0-0-3h5-5-5-555555
D -0--0-0--0--0-0---0-0--2-3--3-3-3--3-3-3p0-0-3h5-5-5-555555

E ------------------------
B ------------------------
G ------------------------
D ------------------------
A -5-5---66666666-5-3-0---
D -5-5---66666666-5-3-0---

CHORUS:
E ----------------------------------------------
B --5--5-5-5------------------------------------
G --5-x5-5-5------------------87--87----------
D --5-x5-5-5---3-3-3-3-3-3----87--87--xx------
A --3-x3-3-3---3-3-3-3-3-3----65--65--xx------
D -------------3-3-3-3-3-3-----------------3p0--

E ------------------------------------------------
B -------------------------5--5-5-5---------------
G ----87--87-------------5-x5-5-5---------------
D -xx-87--87-------------5-x5-5-5--3-3-3-3-3-3--
A -xx-65--65-------------3-x3-3-3--3-3-3-3-3-3--
D --------------3p0-3p0--------------3-3-3-3-3-3--

E -----------------------------------------------------------
B ----------------------------------------------------------- this part
G ----------------------------------------------------------- is end of
D ----------------------------------------------------------- CHORUS
A --------6-6-5-5------3-------------------------------------
D -1-0-0----------6-6-----6-5-5-4-4-3-3-2-2-3p2-0------------

RIFF 1:
E -----------------------------
B -----------------------------
G -----------------------------
D -----------------------------
A -2-2-2-2---2-2-2-2-----------
D -0-0-0-0---0-0-0-0--3^r-3^r--

RIFF 2:
E ---------------------------
B ---------------------------
G --7-7-7-7-7--7-7-7-7/87---
D --7-7-7-7-7--7-7-7-7/87---
A --5-5-5-5-5--5-5-5-5/65---
D ---------------------------

RIFF 3:
E -------------------------------
B -------------------------------
G --7--7--7-7-7-7--7-7-7---4-5---
D --7--7--7-7-7-7--7-7-7---4-5---
A --5--5--5-5-5-5--5-5-5---2-3---
D -------------------------------

BRIDGE:
E ---------------------------
B ---------------------------
G -7--7----------------------
D -7--7-------0h3p0----------
A -5--5---2h3-------3--2-3---
D ---------------------------]

Songflow
Intro } 5x
Verse } 2x
Verse } 4x w/heavy PM
CHORUS
Verse } 4x w/heavy PM
CHORUS
Riff 1 } 3x
Rif 2 } 2x
Riff 1 } 4x
Riff 1 } 6x w/heavy PM
Riff 3 } 3x
Bridge } 20x
C G
End of CHORUS } 2x
Другие песни: