MelvinsGreen Honey Текст

0 Голосов
-----------------------------------------------------------------------------

GREEN HONEY - Melvins
-----------------------------------------------------------------------------

Tabbed by an17nin17
Email - c.norman83@ntlworld.com

Drop D Tuning - D, A, D, G, B, E

Intro
| 1,2| 3|
|-----------------|-------------|--------|----------------------------|
|-----------------|-------------|--------|----------------------------|
|-----------------|-------------|--------|----------------------------|
|-----------------|-------------|--------|----------------------------|
|-1-0-0-1-0-0-1-0-|-12-0-0-12-0-|-3^-2-3-|-0-9-0-0-10-0-0-13-0-0-12~~-|
|-1-0-0-1-0-0-1-0-|-12-0-0-12-0-|-3^-2-3-|-0-9-0-0-10-0-0-13-0-0-12~~-|
| Play x 3

Verse
1,2,4,5| 3,6|
|-------------|--------|----------------------------|
|-------------|--------|----------------------------|
|-------------|--------|----------------------------|
|-------------|--------|----------------------------|
|-12-0-0-12-0-|-3^-2-3-|-0-9-0-0-10-0-0-13-0-0-12~~-|
|-12-0-0-12-0-|-3^-2-3-|-0-9-0-0-10-0-0-13-0-0-12~~-|
Play x 6

Middle 8

|-------------------------------------------------------------------------|
|-------------------------------------------------------------------------|
|-------------------------------------------------------------------------|
|-----------------------------------0-------------------------------------|
|-----------------------------------0-------------------------------------|
|-1-0-0-1-0-0-1~~-0-1-0-0-1-0-0-1-0-0---0-0-1-0-0-1-0-0-1~~-0-1-0-0-1-0-0-|
PM............. PM...........

|-------------------------------------------------------|
|-------------------------------------------------------|
|-------------------------------------------------------|
|-----0-0-----------------------------------------------|
|-----0-0-5-4-----------5-4-----------4-3---------------|
|-1-0-0-0-----6-5~~-5-6-----6-5-4~~-4-----4~~-3-3-2-1-0-|
PM...

Outro

|---------------------------|---------------------------------------------|
|---------------------------|---------------------------------------------|
|---------------------------|---------------------------------------------|
|-0-0-0-0-0-0-5-4-5-4-5-4-0-|---------------------------------------------|
|---0-0-0-0-0---------------|-0-0-0-0-0-0-5-4-5-4-5-4-0-0-0-0-0-0-0-5-4-5-|
|---0-0-0-0-0---------------|-0-0-0-0-0-0-5-4-5-4-5-4-0-0-0-0-0-0-0-5-4-5-|
PM....... |
Play x 2 |

|---------|
|---------|
|---------|
|-4-4-4-4-|
|-4-4-4-4-|
|-4-4-4-4-|

Contact me if you have any comments about this tab.
Другие песни: