MelvinsCandy O Текст

0 Голосов
-----------------------------------------------------------------------------

CANDY О - Melvins
-----------------------------------------------------------------------------

Tabbed by an17nin17
Email - c.norman83@ntlworld.com

Standard Tuning - E, A, D, G, B, E

Intro

|---------------|-----------------------|
|---------------|-----------------------|
|---------------|-----------------------|
|-9-9-7-9-109-7-|-2-2-2-2-2-2-2-2-------|
|-7-7-5-7-8-7-5-|-2-2-2-2-2-2-2-2-0-2~~-|
|---------------|-0-0-0-0-0-0-0-0-------|
Play x 4 | Play x 2

Verse

|---------------|
|---------------|
|---------------|
|-9-9-7-9-109-7-|
|-7-7-5-7-8-7-5-|
|---------------|
Play x 4

Chorus

|-------|---------------|-------------------|-------|---------------|
|-------|---------------|-------------------|-------|---------------|
|-------|---------------|---------11-9-11~~-|-------|---------------|
|-5---2-|-9-9-7-9-109-7-|-9-9-7-9-----------|-5---2-|-9-9-7-9-109-7-|
|-3---0-|-7-7-5-7-8-7-5-|-7-7-5-7-----------|-3---0-|-7-7-5-7-8-7-5-|
|-------|---------------|-------------------|-------|---------------|
| Play x 2 | Play x 6 | | Play x 2

Оuтrо

|-------|---------------------------------------------|
|-------|---------------------------------------------|
|-------|---------------------------------------------|
|-4---7-|---------------------------------------------|
|-2---5-|-----------------5-7~~-----------------5-7-5-|
|-------|-0-0-0-0-0-0-0-0-------0-0-0-0-0-0-0-0-------|
Play x 4

|-------------------------------------------|---|
|-------------------------------------------|---|
|-------------------------------------------|---|
|-------------------------------------------|---|
|-----------------5-7-----------------5-7~~-|-7-|
|-0-0-0-0-0-0-0-0-----0-0-0-0-0-0-0-0-------|-0-|
Play x 3 |

Contact me if you have any comments about this tab.
Другие песни: