MegadethCrown Of Worms Текст, аккорды

0 Голосов
-----------------------------------------------------------------------------

Crown of Worms - Megadeth
-----------------------------------------------------------------------------
Tabbed by:bear-crow
Email:devil_dunk@mail.com
Note: I will just put a number on top of each rythm change for some indications.
And I will put a letter on top of each segment. Don't worry, it'll not be difficult
you'll get it. Oh and I don't really remember how much you have to repeat each
change, 'cause I'm not listening to the song right now, but, trust me its all there.

Tuning:Eb Ab Db Gb Bb eb
1
A B
eb|-----------------------------------|--------------------------------------
Bb|-----------------------------------|--------------------------------------
Gb|-2----2----2--2--5----7/8/7--5---7-|-2---2---2--2--5----7/8/7---5---------
Db|-2----2----2--2--5----7/8/7--5---7-|-2---2---2--2--5----7/8/7---5---------
Ab|-0----0----0--0--3----5/6/5--3---5-|-0---0---0--0--3----5/6/5---3---------
Eb|-----------------------------------|--------------------------------------
Repeat A then: C | Repeat ABA but end like this: D
eb|-----------------------------------|--------------------------------------
Bb|-----------------------------------|--------------------------------------
Gb|-2----2----2--2--5-----------------|-2---2---2--2--5----------------------
Db|-2----2----2--2--5----5----4--3--2-|-2---2---2--2--5---5---4--3--2--3--4--
Ab|-0----0----0--0--3----5----4--3--2-|-0---0---0--0--3---5---4--3--2--3--4--
Eb|----------------------3----2--1--0-|-------------------3---2--1--0--1--2--
pm**** pm**** ****

2
Repeat A(of 2 of course)then:
A B C Repeat (ABAC) 3 times I think.
eb|-----------------|----------------|---------------------------------------
Bb|-----------------|----------------|---------------------------------------
Gb|----5-----5/7--5-|-7-------6/7--5-|-6/7--6/7-----5------------------------
Db|----5-----5/7--5-|-7-------6/7--5-|-6/7--6/7-----5------------------------
Ab|-0--3--0--3/5--3-|-5--0-0--4/5--3-|-4/5--4/5--0--3--0-0-------------------
Eb|-----------------|----------------|---------------------------------------
pm*** pm****

3
Repeat A 3 times then:
A B Repeat (AAAB)I think just once more.
eb|----------|---------------------------------------------------------------
Bb|----------|---------------------------------------------------------------
Gb|-2--5--4--|-2--5--7---4--5------------------------------------------------
Db|-2--5--4--|-2--5--7---4--5------------------------------------------------
Ab|-0--3--2--|-0--3--5---2--3------------------------------------------------
Eb|----------|---------------------------------------------------------------


4 Repeat 4 a lot of times.
eb|--------------------------------------------------------------------------
Bb|--------------------------------------------------------------------------
Gb|-2----2----2--2--5----------5---------------------------------------------
Db|-2----2----2--2--5----5-6h7---7-6p5---5-----------------------------------
Ab|-0----0----0--0--3------------------7---7---------------------------------
Eb|--------------------------------------------------------------------------


5 Repeat A 3 times then:
A B
eb|---------------|----------------------------------------------------------
Bb|---------------|----------------------------------------------------------
Gb|-2--5--2-------|-7/8/7--5---7---------------------------------------------
Db|-2--5--2--2--2-|-7/8/7--5---7---------------------------------------------
Ab|-0--3--0--0--0-|-5/6/5--3---5---------------------------------------------
Eb|---------------|----------------------------------------------------------
pm*****


End.
eb|--------------------------------------------------------------------------
Bb|--------------------------------------------------------------------------
Gb|-7/8/7--5---7----5/6/5--3---5---3---2-------------------------------------
Db|-7/8/7--5---7----5/6/5--3---5---3---2-------------------------------------
Ab|-5/6/5--3---5----3/4/3--1---3---1---0-------------------------------------
Eb|--------------------------------------------------------------------------

That's it. You should just check for the timing. The order is:


1
2
3
1 like this: ABAD (just once)
2
3
4
5
End.
Другие песни: