Мэд ДогНазови меня рекой Текст, аккорды

0 Голосов
intro:


E G#m
E|-----0-----0---0-----4-----4---4-|
H|-----0-----0---0-----4-----4---4-|
G|-----1-----1---1-----4-----4---4-|
D2---2-----6-----6---6-|
A2---2-----6-----6---6-|
E|-0-0---0-0---0---4-4---4-4---4---|

C#sus2 C#m G#7
E|-----4-----4---4-----4-----4---4-|
H|-----4-----5---4-----7-----4---7-|
E|-----6-----6---6-----5-----5---5-|
H|-----6-----6---6-----------------|
E|-4-4---4-4---4---6-6---6-6---6---|
H----------------------|

solo:

E|-4-4-4^5-4-----------------------|
H5-4-5^7-5-4-5-4-5^7-5-|

E|---------|
H|-4-1---1-|
G|-----1---|

Сначала играется Intro, потом 3 раза intro+solo

C#m-G#m-C#m

G#m C#m
Шепот губ запоздалый
G#m C#m
Тонкий запах тревоги
Тени прячутся в камнях
Одинокой дороги
Бесполезные споры
Запотевшие окна
Камнем падают в воду
Потускневшие звезды

Припев: (играется под intro)
E G#m
Назови меня рекой
C#sus2 C G7
Дождем, огнем, водой
Расскажи, что ждет потом
Но мне уже, но мне ведь все равно
intro+solo

В глубине там где небо
Ровно дышит с землею
Я иду только что-то
Здесь неладно сомною
И останется только
Пропадать в черных дырах
Если выпадет кара
Я найду в себе силы

Припев.
Другие песни: